Oops, an error
Loading. Please wait.

Searching For A Former Clarity tab

version 1
version 1

Whole song

Interactive

6,124 views 3 this week
1 commentread comment
1 2 3 4 5
x 5
add to favorites
×
Save as Personal and add changes to this tab that will be seen only by you. Learn more ›
×
You can save this tab as Personal to edit and correct it or add notes. All changes will be seen only by you. Learn more »
launch autoscroll
font size
0
reset
how to read this tab
guitar tuner
edit
Autoscroll
slow
fast
+/-
esc
set tempo
stop
okay so this song is VERY basic, just four notes, which turns into four chords.
i don't see any corrections that could be made on this but if you have any, let
me know. okay so there are four notes that run through the entire song:

e--------------------|
B--------------------|
G--------------------|
D--------------------|
A-------4---7---5----|
E---5----------------|

after a while the second guitar comes in and plays the same notes as power chords:

e--------------------|
B--------------------|
G-------6---9---7----|
D---7---6---9---7----|
A---7---4---7---5----|
E---5----------------|

that's it.
once again, let me know if you have comments or corrections.
thanks.

            
            
Suggest correction
Creating personal tab
Creating personal tab
You can edit any tab online and save it as your Personal.

You can edit, replace or remove any tab part or add personal notes – all changes will be seen only by you.

Personal tabs can be accessed anytime from any device, even offline.
Learn more »
comments
print report bad tab
1 comment total.
0 reply
Tcurtis 165 Sep 07, 2005 08:00 PM

the whole song is this:

e--------------------|
B--------------------|
G--------------------|
D-------7---9---7----|
A---7---4---7---5----|
E---5----------------|

guest
Wanna post a correction for this tab? Suggest correction