Oops, an error
Loading. Please wait.

Stop bass

version 1
version 1

Whole song

Interactive

5,206 views 6 this week
no commentswrite comment
1 2 3 4 5
x 6
add to favorites
×
Save as Personal and add changes to this tab that will be seen only by you. Learn more ›
×
You can save this tab as Personal to edit and correct it or add notes. All changes will be seen only by you. Learn more »
launch autoscroll
font size
0
reset
guitar tuner
backing track
0:00
0:00
edit
Autoscroll
slow
fast
+/-
esc
set tempo
stop
Author
Against Me!
Stop!
From the album New Wave!

Sounds best played with a pick on a fender P bass!

Ok, so this is the Chorus part.
The timing is so bizarre. 
But the bass is easy to hear in this part.

--D-- (2 bars long)
G|--------------------------------|
D|--------------------------------|
A|-5--5-5--5-0-3/5--5-5-5---0--3--|
E|--------------------------------|

--Bb-- (2 bars long)
G|----------------------------------|
D|-/8--8-8--8---6/8--8--8-8-8-----6-|
A|-----------8----------------8-----|
E|----------------------------------|

--G-- (Again 2 bars long)
G|---------------------------------|
D|---------------------------------|
A|---------------------------------|
E|--3--3-3--3-0--1/3---3--3-3-0-1--|

--"Ya gotta make a serious decision"--
G|---------------------------------|
D|---------------------------------|
A|---/8--8-8---7-7-7---3-3---5-5---|
E|---------------------------------|


Right, this Verse part is not so easy to hear.
Basically he just plays the root note 
and it's 3rd 4th and 5th. I can't hear excactly what
he's doing, so I think it is forgivable to just 
improvise this part! I will show you an example...


--G-- ("It should be me up there...")
G|------------------------------------|
D|------------------------------------|
A|-----2------3-2--------2------2-3-2-|
E|-3-3---3--3-----3---3-3--3--3-------|

--D-- ("Me on your TV in your...")
G|-------------------|------------------|
D|------3--------3---|-----3--3-3-3-----| This second part 
A|--5-5---5-3-5----5-|-5-5------------5-| follows the lead
E|-------------------|------------------| guitar riff!!!!!

--G-- ("Could be me jet setting...")
G|------------------------------------|
D|------------------------------------|
A|-----2------3-2--------2------2-3-2-|
E|-3-3---3--3-----3---3-3--3--3-------|

--Bb-- ("appear live in concert...")
G|-------------------|
D|-------------------|
A|-------------------|
E|--6-6-6-4-6-6-6-4--|

--C-- ("Tickets sold out...")
G|-------------------|
D|-------------------|
A|-------------------|
E|--8-8-8-6-8-6-8-6--|

All the verses and choruses are played 
the same, apart from the last verse which
just lasts a little bit longer.
The only other section comes after the last 
verse before the chorus...

G|--------------|
D|--------------|
A|--5--3--1--0--|
E|--------------|


Then the last "gotta make a serious decision"
goes like this...

G|--------------------------------|-----|
D|--------------------------------|-----|
A|--/8--8-8---7/10-10--3-3---5-5--|--5--|
E|--------------------------------|-----|

Excellent Song!
Cheers... Jordon!

            
            
Suggest correction
Creating personal tab
Creating personal tab
You can edit any tab online and save it as your Personal.

You can edit, replace or remove any tab part or add personal notes – all changes will be seen only by you.

Personal tabs can be accessed anytime from any device, even offline.
Learn more »
comments
print report bad tab
guest
You may want to rate the tab now too:
select rating
Wanna post a correction for this tab? Suggest correction