Oops, an error
Loading. Please wait.

Thrash Unreal bass

version 1
version 1

Whole song

Interactive

12,920 views 3 this week
1 commentread comment
1 2 3 4 5
x 6
add to favorites
×
Save as Personal and add changes to this tab that will be seen only by you. Learn more ›
×
You can save this tab as Personal to edit and correct it or add notes. All changes will be seen only by you. Learn more »
launch autoscroll
font size
0
reset
guitar tuner
edit
Autoscroll
slow
fast
+/-
esc
set tempo
stop
Author
Difficulty
Intro after guitar bit
G|---------------|
D|---------------|
A|---1>-5>-1>----|  x2
E|1>-------------|

Pre-Chorus
G|------------------------------------|
D|---10-12-10-------------------------|
A|3>----------1>----------------------| x1
E|---------------1-1-0-1-1-0-1-1------|

Chorus
G|----------------------------------------------------------------|
D|----------------------------------------------------------------|
A|--------------------------------1-1-1-0-1-1-1-0-1-1-1-0-1-0-1-0-|
E|1-1-1-0-1-1-1-0-1-1-1-0-1-0-1-0---------------------------------|

G|----------------------------------------------------------------|
D|----------------------------------------------------------------|
A|5-5-5-0-5-5-5-0-5-5-5-0-5-0-5-0-1-1-1-0-1-1-1-0-1-0-1-3-5-3-1-0-|
E|----------------------------------------------------------------|

Verse part 1 x2
G|----------------------------------------------------------|
D|----------------------------------------------------------|
A|-----------------------------1--1-0-1--1-0-1--1-0-1-0-1-0-|
E|1--1-0-1--1-0-1--1-0-1-0-1-0------------------------------|

G|-----------------------------------------------------------|
D|-----------------------------------------------------------|
A|5--5-0-5--5-0-5--5-0-5-0-5-0-1--1-0-1--1-0-1-0-1-3-5-3-1-0-|
E|-----------------------------------------------------------|

Verse part 2 (can be played like the chorus with the 0's,
G|------------------------|      i like it better this way though)
D|------------------------|
A|5>-1>----1>-3>-1--------|
E|------1>----------------|

Pre-chorus
G|---------------------|
D|---------------------|
A|---------------------|
E|1-1-0-1-1-0-1-1------|

Chorus x4 (the verse is the same as the chorus this time around)

Verse part 2 x1

Pre-chorus
G|---------------------|
D|---------------------|
A|---------------------|
E|1-1-0-1-1-0-1-1------|

Chorus x2 1/2

Outro
G|--------------|
D|--------------|
A|5>-3>-1>------|
E|----------1~--|

This was my first tab. its not completely correct but i think its alright.
If anyone wants to fix up bits or leave comments that would be greatly
appreciated. Hopefully more tabs coming. Have fun!

            
            
Suggest correction
Creating personal tab
Creating personal tab
You can edit any tab online and save it as your Personal.

You can edit, replace or remove any tab part or add personal notes – all changes will be seen only by you.

Personal tabs can be accessed anytime from any device, even offline.
Learn more »
comments
print report bad tab
1 comment total.
0 reply
Dudeney! 114 Sep 30, 2008 11:27 AM

G|--------------------------------|
D|--------------------------------|
A|5-5-5-0-5-5-5-0-5-5-5-0-5-0-5-0-|
E|--------------------------------|


I thikn this top bit above is actually played like this...

G|--------------------------------|
D|--------------------------------|
A|5-5-5-3-5-5-5-3-5-5-5-3-5-3-5-3-|
E|--------------------------------| ...what do you think?

Really good tab otherwise!!!

guest
You may want to rate the tab now too:
select rating
Wanna post a correction for this tab? Suggest correction