Oops, an error
Loading. Please wait.

Up The Cuts tab

version 1
version 1

Whole song

8,234 views 12 this week
2 commentsread comments
1 2 3 4 5
x 8
add to favorites
×
Save as Personal and add changes to this tab that will be seen only by you. Learn more ›
×
You can save this tab as Personal to edit and correct it or add notes. All changes will be seen only by you. Learn more »
launch autoscroll
font size
0
reset
how to read this tab
guitar tuner
edit
Autoscroll
slow
fast
+/-
esc
set tempo
stop
Author
Difficulty
Against Me! - Up The Cuts
Tabbed by Joe

This is a great new song they played live a few times recently. I reckon this is a 
decent transcription, its straight from the video on their website so i could get a decent 
from watching Tom & James' fingers. If anyone has the lyrics then send them this way if possible. Cheers.

Main riff

e-x-77-7-|
b-x-88-7-|
g-x-99-7-|  x8
d-x-99-7-|
a-x-77-7-|
E--------|

Verse (i cant sleep....)

e-x-77-7------------------x-77---x-77---|
b-x-88-7------------------x-88-7-x-88-7-|
g-x-99-7-[x4]-------------x-99-7-x-99-7-| x2
d-x-99-7------7777-88-7-5-x-99-7-x-99-7-|
a-x-77-7------7777-88-7-5-x----7-x----7-|
E-------------5555-66-5-3---------------|

Pre-Chorus (drive influence....)

e----------------------------------|
b--------------------------2-------|
g----------9-------7-------2-------|
d-10-------9-[x16]-7-[x16]-2-[x16]-| x2
a-10-[x16]-7-------5-------0-------|
E-8--------------------------------|

continue A chord for link to chorus when James sings

Chorus (are you restless like me.....)

e-33333333-----------/8-7-5-3-33333333-----------/8-7-5-3-33333333---------------------------|
b-33333333-555555555----------33333333-555555555----------33333333---------------------------|
g-44444444-555555555----------44444444-555555555----------44444444---------------------------|
d-55555555-555555555----------55555555-555555555----------55555555-7777-2222-----------------|
a-55555555-333333333----------55555555-333333333----------55555555-7777-2222-----------------|
E-33333333--------------------33333333--------------------33333333-5555-0000-3-0-3-5-6-6-5-3-|

(the chorus chords are G & C, James plays them at the open positions to counteract Tom's 
chords)

then all that repeats once again

Outro

e----------------------3-|
b------------------------|
g------------------------|
d-55555-7777-------------|
a-55555-7777-------------|
E-33333-5555-3-0-3-0-3---|

            
            
Suggest correction
Creating personal tab
Creating personal tab
You can edit any tab online and save it as your Personal.

You can edit, replace or remove any tab part or add personal notes – all changes will be seen only by you.

Personal tabs can be accessed anytime from any device, even offline.
Learn more »
comments
print report bad tab
2 comments total.
+1 reply
eastsidemagTHBS 10 Jul 01, 2007 09:56 PM

great tab!

+2 reply
cono the guitar 82 Dec 20, 2009 11:53 AM

i think that part in the chorus is played like:

e|---------|
b|---------|
g|-5-4-2-0-|
d|---------|
a|---------|
e|---------|

guest
You may want to rate the tab now too:
select rating
Wanna post a correction for this tab? Suggest correction