Oops, an error
Loading. Please wait.

Violence bass

version 2
version 2

Whole song

Interactive

1,621 views 1 this week
1 commentread comment
1 2 3 4 5
2 more votes to show rating
add to favorites
×
Save as Personal and add changes to this tab that will be seen only by you. Learn more ›
×
You can save this tab as Personal to edit and correct it or add notes. All changes will be seen only by you. Learn more »
launch autoscroll
font size
0
reset
guitar tuner
edit
Autoscroll
slow
fast
+/-
esc
set tempo
stop
Author
Difficulty
BAND-AGAINST ME
SONG-VIOLENCE
TABED BY- sPecialK

(INTRO PLAY 3X)
G----------------------------------------------------------------------------|
D----------------------------------------------------------------------------|
A-------------------2-222222-2-22220-----------------------------------------|
E--3-333333-3-333333-----------------0-000000-0-00000023-333333-3-333333-----|
(PLAY THIS ONLY ON THE 4TH TIME DURING INTRO)
G----------------------------------------------------------------------------|
D----------------------------------------------------------------------------|
A-------------------2-222222-2-22220------------------------------------2H3--|
E--3-333333-3-333333-----------------0-000000-0-00000023-333333-3-333333-----|

(VERSE)
G----------------------------------------------------------------------------|
D----------------------------------------------------------------------------|
A-------------------2-222222-2-22220-----------------------------------------|
E--3-333333-3-333333-----------------0-000000-0-00000023-333333-3-333333-----|

(CHORUS)
G----------------------------------------------------------------------------|
D----------------------------------------------------------------------------|
A-------------------2-222222-2-22220-----------------------------------------|
E--3-333333-3-333333-----------------0-000000-0-00000023-333333-3-333333-----|

G----------------------------------------------------------------------------|
D----------------------------------------------------------------------------|
A----------------0255555555555555----------------22222222222222--------------|
E--33333333333333-----------------033333333333333----------------------------|

(PLaY 2X)
G----------------------------------------------------------------------------|
D----------------------------------4440--------------------------------------|
A-------------------2-222222-2-2222------------------------------------------|
E--3-333333-3-333333--------------------00000000000023-33333333333333--------|

G----------------------------------------------------------------------------|
D-----------------------------------4440-------------------------------------|
A-------------------555/222222222222-----------------------------------------|
E--3-333333-3-333333---------------------000000000000------------------------|

G----------------------------------------------------------------------------|
D----------------------------------------------------------------------------|
A-------------------2-222222-2-22220-----------------------------------------|
E--3-333333-3-333333-----------------0-000000-0-00000023-333333-3-3333330233-|

G----------------------------------------------------------------------------|
D----------------------------------------------------------------------------|
A---------------------2-222222-2-22220---------------------------------------|
E--023-333333-3-333333-----------------0-000000-0-00000023-333333-3-333333---|

G----------------------------------------------------------------------------|
D----------------------------------------------------------------------------|
A----------------0255555555555555----------------22222222222222--------------|
E--33333333333333-----------------033333333333333----------------------------|

(PLAY 2X)
G----------------------------------------------------------------------------|
D----------------------------------------------------------------------------|
A----------------0255555555555555----------------22222222222222 532532532----|
E--33333333333333-----------------033333333333333----------------------------|

G----------------------------------------------------------------------------|
D----------------------------------------------------------------------------|
A---2------------------------------------------------------------------------|
E--3--0--3-0R----------------------------------------------------------------|


THE SONG ON THE BASS IS FOR THE MOST PART REPEATS THERE ARE ONLY A FEW PARTS THAT ARE 
THE ONLY THING THAT IS HARD ABOUT THIS SONG IF YOU ARE A BEGINNER YOUR HAND MIGHT TIRE ITS 
FIVE MINUTE SONG OTHERWISE ENJOY. ANY QUESTIONS E-MAIL ME AT KJSINFLA@AOL.COM

            
            
Suggest correction
Creating personal tab
Creating personal tab
You can edit any tab online and save it as your Personal.

You can edit, replace or remove any tab part or add personal notes – all changes will be seen only by you.

Personal tabs can be accessed anytime from any device, even offline.
Learn more »
Give kudos to tab author, rate the tab!
1 2 3 4 5
comments
print report bad tab
1 comment total.
0 reply
ambrannon81 10 Feb 05, 2008 08:10 PM

much better version than the other one, this is how I play it. Why slide up and down on the E string when the notes are right there so close to each other. I tried to post this tab this way but you beat me too it. good job

guest
You may want to rate the tab now too:
select rating
Wanna post a correction for this tab? Suggest correction