Oops, an error
Loading. Please wait.

Wagon Wheel Bass

version 1
version 1

Whole song

Interactive

25,661 views 33 this week
no commentswrite comment
1 2 3 4 5
x 6
add to favorites
launch autoscroll
font size
0
reset
guitar tuner
×
Best way to learn
"Wagon Wheel"
Autoscroll
slow
fast
+/-
esc
set tempo
stop
Difficulty
novice
This is what I play on bass when my friend plays this song on acoustic guitar.

Standard tuning


Riff 1 = Verse 1&2/Chorus
G:--------------------------------------------------------------------------------|
D:--------------------------------------------------------------------------------|
A:--------------7-7-7-7-7-----------5-5-5-5-5-----------------5-5-5-5-5-5-5-5-5-5-|
E:---5-5-5-5-5------------2-2-2-2-2-----------5-5-5-5-5--5--4---------------------|

Riff 2 = Verse 3 (Walking to the south...)

G:----------------------------------------------------|
D:----------------------------------------------------|
A:------7---------5---------------5-5-5-5-5-5-5-5-5-5-|
E:-5---------2---------5----5---4---------------------|

Repeat Riff 1

Thats it, just listen to the tempo and you'll have it down in no time, easy song.
Suggest correction
comments
print report bad tab
guest
You may want to rate the tab now too:
select rating
Wanna post a correction for this tab? Suggest correction