Oops, an error
Loading. Please wait.

Wagon Wheel tab

version 1
version 1

Whole song

Interactive

54,592 views 12 this week
4 commentsread comments
1 2 3 4 5
x 10
add to favorites
×
Save as Personal and add changes to this tab that will be seen only by you. Learn more ›
×
You can save this tab as Personal to edit and correct it or add notes. All changes will be seen only by you. Learn more »
launch autoscroll
font size
0
reset
how to read this tab
guitar tuner
edit
Autoscroll
slow
fast
+/-
esc
set tempo
stop
-------------------------------------------------------------------------------
                             Wagon Wheel- Against Me

Tabbed by:ryan3700
Email:blinde99@aol.com  

Tuning: Standard

Capo on 2
 
      
     G                D                 Em               C
e|--------------------------------------------------------------------------|
B|---------3-----------------------------------------------------1----------|
G|-----------0---0-------2---2---2-------------0---0-----0--0-----0----0----|
D|-------------0---0---0---0---0--------2--2---------0---2--2--------2------|
A|---2--2-------------------------------2--2-------------3--3---------------|
E|---3--3-------------------------------------------------------------------|
     G                D                  C
e|--------------------------------------------------------------------------|
B|--------3------------------3------------------1--------1--------1---------|
G|----------0-----0---2--2------2-----2--0--0-----0--------0--------0-------|
D|-------------0------0--0---------0-----2--2--------2--------2--------0----|
A|--2--2---------------------------------3--3-------------------------------|
E|--3--3--------------------------------------------------------------------|


| /  slide up
| \  slide down
| h  hammer-on
| p  pull-off
| ~  vibrato
| +  harmonic
| x  Mute note
===============================================================================


            
            
Suggest correction
Creating personal tab
Creating personal tab
You can edit any tab online and save it as your Personal.

You can edit, replace or remove any tab part or add personal notes – all changes will be seen only by you.

Personal tabs can be accessed anytime from any device, even offline.
Learn more »
comments
print report bad tab
4 comments total. Showing first comments.
+1 reply
ryan3700 51 Mar 07, 2008 08:17 AM

Two corrections to my tab.
1. The second line on the e string there is a 3 it should be on the B line.
2. First line where the C is at the top the 023 below it should be aligned, right now the 0 is a little to the right.

Hope this helps.

0 reply
ryan3700 51 Mar 08, 2008 07:18 AM

Never mind the corrections i didnt know you could edit the tab so i fixed it.

0 reply
theonlymedicine 51 May 19, 2008 12:19 PM

Good tab.
But when I sing this song, I just play the G, D, Em, and the C

guest
You may want to rate the tab now too:
select rating
Wanna post a correction for this tab? Suggest correction