Oops, an error
Loading. Please wait.

White People For Peace bass

version 1
version 1

Whole song

Interactive

3,386 views 12 this week
no commentswrite comment
1 2 3 4 5
1 last vote to show rating
add to favorites
×
Save as Personal and add changes to this tab that will be seen only by you. Learn more ›
×
You can save this tab as Personal to edit and correct it or add notes. All changes will be seen only by you. Learn more »
launch autoscroll
font size
0
reset
guitar tuner
edit
Autoscroll
slow
fast
+/-
esc
set tempo
stop
Author
Difficulty
Intro/chorus x2
G|---------------------------------------------------|
D|--------1>-011101010-----------3-5-3---------------|
A|3>-------------------1>--1-3-5-------5-3-----------|
E|----4>---------------------------------------------|  


Verse x1
G|--------------------|
D|--------------------|
A|3>--------3>--------|
E|------4>--------4>--|

Pre Chorus x2
G|-------------------------|
D|--------11-1-------------|
A|1-33---------1>-01101101-|
E|-----44------------------|

Intro/Chorus x2
Verse x1
Pre Chorus x2
Intro/chorus x3 (through guitar solo)
Pre Chorus x2
Intro/Chorus x2

Final Chorus x2
G|------------------------------------------|
D|----------------1-11-11-01010-------353---|
A|3-33-33-33-3------------------1>-135---53-|
E|-------------4>---------------------------|

End with A3.

just play in that order and yeah sorry if its a little confusing.

There are a few little changes and different bass runs throughout the chorus that i couldnt
be bothered with but this sounds fine to me. 
Thanks

            
            
Suggest correction
Creating personal tab
Creating personal tab
You can edit any tab online and save it as your Personal.

You can edit, replace or remove any tab part or add personal notes – all changes will be seen only by you.

Personal tabs can be accessed anytime from any device, even offline.
Learn more »
Give kudos to tab author, rate the tab!
1 2 3 4 5
comments
print report bad tab
guest
You may want to rate the tab now too:
select rating
Wanna post a correction for this tab? Suggest correction