Oops, an error
Loading. Please wait.

In Our Bones tab

version 1
version 1

Whole song

  • This is the tab of the "cute sound" in the pre-chorus and chorus.
9,956 views 114 this week
4 commentsread comments
1 2 3 4 5
x 17
add to favorites
×
Save as Personal and add changes to this tab that will be seen only by you. Learn more ›
×
You can save this tab as Personal to edit and correct it or add notes. All changes will be seen only by you. Learn more »
launch autoscroll
font size
0
reset
how to read this tab
guitar tuner
edit
Autoscroll
slow
fast
+/-
esc
set tempo
stop
Author
This is my first ever tab for Against The Current!
These guys are awesome and their new album just came out!!
In Our Bones is my favourite song right now :)
Please comment on how I can improve

Standard Tuning
No Capo

[Intro]

e|----------x--------x--------x--------x-|
B|------3---x----3---x----3---x----3---x-|
G|------0---x----0---x----0---x----2---x-|  x2
D|----------x--------x--------x--------x-|
A|0-2/3-----x--------x--------x--------x-|
E|----------x--3-----x--0-----x--2-----x-|


[Verse]

e|-------x--------x--------x--------x-||-------x--------x--------x--------x-||
B|---3---x----3---x----3---x----3---x-||---3---x----3---x----3---x----3---x-||
G|---0---x----0---x----0---x----2---x-||---0---x----0---x----0---x----2---x-||
D|-------x--------x--------x--------x-||-------x--------x--------x--------x-||
A|-3-----x--------x--------x--------x-||-3-----x--------x--------x--------x-||
E|-------x--3-----x--0-----x--2-----x-||-------x--3-----x--0-----x--2-----x-||

    "We are wild flowers"               "The city is our field of gold"


e|-------x--------x--------x--------x-||-------x--------x-----2-----------x-||
B|---3---x----3---x----3---x----3---x-||---3---x----3---x-----3-----------x-||
G|---0---x----0---x----0---x----2---x-||---0---x----0---x-----------------x-||
D|-------x--------x--------x--------x-||-------x--------x-----0-----------x-||
A|-3-----x--------x--------x--------x-||-3-----x--------x-----------------x-||
E|-------x--3-----x--0-----x--2-----x-||-------x--3-----x-----------------x-||

  "We've got wild fire"                 "In our bones"


[Pre-Chrous]

e|-------x--------x--------x--------x-||-------x--------x--------x--------x-||
B|---3---x----3---x----3---x----3---x-||---3---x----3---x----3---x----3---x-||
G|---0---x----0---x----0---x----2---x-||---0---x----0---x----0---x----2---x-||
D|-------x--------x--------x--------x-||-------x--------x--------x--------x-||
A|-3-----x--------x--------x--------x-||-3-----x--------x--------x--------x-||
E|-------x--3-----x--0-----x--2-----x-||-------x--3-----x--0-----x--2-----x-||

 "We're born to be electric"   "You and me, we're painting neon under our skin"


e|-------x--------x--------x--------x-||-------x--------x-----2-----------x-||
B|---3---x----3---x----3---x----3---x-||---3---x----3---x-----3-----------x-||
G|---0---x----0---x----0---x----2---x-||---0---x----0---x-----------------x-||
D|-------x--------x--------x--------x-||-------x--------x-----0-----------x-||
A|-3-----x--------x--------x--------x-||-3-----x--------x-----------------x-||
E|-------x--3-----x--0-----x--2-----x-||-------x--3-----x-----------------x-||

"It's a force you shouldn't mess with" "Cause you and me, we're glowing bright, radioactive"
 

[Chorus]

e|-------x--------x--------x--------x-||-------x--------x--------x--------x-||
B|---3---x----3---x----3---x----3---x-||---3---x----3---x----3---x----3---x-||
G|---0---x----0---x----0---x----2---x-||---0---x----0---x----0---x----2---x-||
D|-------x--------x--------x--------x-||-------x--------x--------x--------x-||
A|-3-----x--------x--------x--------x-||-3-----x--------x--------x--------x-||
E|-------x--3-----x--0-----x--2-----x-||-------x--3-----x--0-----x--2-----x-||

 "Bruises come and go" "But our hearts beat louder" "Than the thunder..."


e|-------x--------x--------x--------x-||-------x--------x--------x--------x-||
B|---3---x----3---x----3---x----3---x-||---3---x----3---x----3---x----3---x-||
G|---0---x----0---x----0---x----2---x-||---0---x----0---x----0---x----2---x-||
D|-------x--------x--------x--------x-||-------x--------x--------x--------x-||
A|-3-----x--------x--------x--------x-||-3-----x--------x--------x--------x-||
E|-------x--3-----x--0-----x--2-----x-||-------x--3-----x--0-----x--2-----x-||

  "We are not invincible" "But we're both stronger than we know" "In our bones, In our bones"


e|-------x--------x--------x--------x-||
B|---3---x----3---x----3---x----3---x-||
G|---0---x----0---x----0---x----2---x-||
D|-------x--------x--------x--------x-||
A|-3-----x--------x--------x--------x-||
E|-------x--3-----x--0-----x--2-----x-||


[Verse]

e|-------x--------x--------x--------x-||-------x--------x--------x--------x-||
B|---3---x----3---x----3---x----3---x-||---3---x----3---x----3---x----3---x-||
G|---0---x----0---x----0---x----2---x-||---0---x----0---x----0---x----2---x-||
D|-------x--------x--------x--------x-||-------x--------x--------x--------x-||
A|-3-----x--------x--------x--------x-||-3-----x--------x--------x--------x-||
E|-------x--3-----x--0-----x--2-----x-||-------x--3-----x--0-----x--2-----x-||

    "We've got super powers"             "The city is our silver screen"


e|-------x--------x--------x--------x-||-------x--------x-----2-----------x-||
B|---3---x----3---x----3---x----3---x-||---3---x----3---x-----3-----------x-||
G|---0---x----0---x----0---x----2---x-||---0---x----0---x-----------------x-||
D|-------x--------x--------x--------x-||-------x--------x-----0-----------x-||
A|-3-----x--------x--------x--------x-||-3-----x--------x-----------------x-||
E|-------x--3-----x--0-----x--2-----x-||-------x--3-----x-----------------x-||

 "Running 'round this little town"      "Wild and free"


[Pre-Chrous]

e|-------x--------x--------x--------x-||-------x--------x--------x--------x-||
B|---3---x----3---x----3---x----3---x-||---3---x----3---x----3---x----3---x-||
G|---0---x----0---x----0---x----2---x-||---0---x----0---x----0---x----2---x-||
D|-------x--------x--------x--------x-||-------x--------x--------x--------x-||
A|-3-----x--------x--------x--------x-||-3-----x--------x--------x--------x-||
E|-------x--3-----x--0-----x--2-----x-||-------x--3-----x--0-----x--2-----x-||

 "We're born to be electric"   "You and me, we're painting neon under our skin"


e|-------x--------x--------x--------x-||-------x--------x-----2-----------x-||
B|---3---x----3---x----3---x----3---x-||---3---x----3---x-----3-----------x-||
G|---0---x----0---x----0---x----2---x-||---0---x----0---x-----0-----------x-||
D|-------x--------x--------x--------x-||-------x--------x-----0-----------x-||
A|-3-----x--------x--------x--------x-||-3-----x--------x-----------------x-||
E|-------x--3-----x--0-----x--2-----x-||-------x--3-----x-----------------x-||

"It's a force you shouldn't mess with" "Cause you and me, we're glowing bright, radioactive"


[Chorus]

e|-------x--------x--------x--------x-||-------x--------x--------x--------x-||
B|---3---x----3---x----3---x----3---x-||---3---x----3---x----3---x----3---x-||
G|---0---x----0---x----0---x----2---x-||---0---x----0---x----0---x----2---x-||
D|-------x--------x--------x--------x-||-------x--------x--------x--------x-||
A|-3-----x--------x--------x--------x-||-3-----x--------x--------x--------x-||
E|-------x--3-----x--0-----x--2-----x-||-------x--3-----x--0-----x--2-----x-||

 "Bruises come and go" "But our hearts beat louder" "Than the thunder..."


e|-------x--------x--------x--------x-||-------x--------x--------x--------x-||
B|---3---x----3---x----3---x----3---x-||---3---x----3---x----3---x----3---x-||
G|---0---x----0---x----0---x----2---x-||---0---x----0---x----0---x----2---x-||
D|-------x--------x--------x--------x-||-------x--------x--------x--------x-||
A|-3-----x--------x--------x--------x-||-3-----x--------x--------x--------x-||
E|-------x--3-----x--0-----x--2-----x-||-------x--3-----x--0-----x--2-----x-||

  "We are not invincible" "But we're both stronger than we know" "In our bones, In our bones"


e|-------x--------x--------x--------x-||-------x--------x--------x--------x-||
B|---3---x----3---x----3---x----3---x-||---3---x----3---x----3---x----3---x-||
G|---0---x----0---x----0---x----2---x-||---0---x----0---x----0---x----2---x-||
D|-------x--------x--------x--------x-||-------x--------x--------x--------x-||
A|-3-----x--------x--------x--------x-||-3-----x--------x--------x--------x-||
E|-------x--3-----x--0-----x--2-----x-||-------x--3-----x--0-----x--2-----x-||

                                                         "In our bones, In our bones"


e|-------x--------x--------x--------x-||-------x--------x--------x--------x-||
B|---3---x----3---x----3---x----3---x-||---3---x----3---x----3---x----3---x-||
G|---0---x----0---x----0---x----2---x-||---0---x----0---x----0---x----2---x-||
D|-------x--------x--------x--------x-||-------x--------x--------x--------x-||
A|-3-----x--------x--------x--------x-||-3-----x--------x--------x--------x-||
E|-------x--3-----x--0-----x--2-----x-||-------x--3-----x--0-----x--2-----x-||


[Verse]

e|-------x--------x--------x--------x-||-------x--------x--------x--------x-||
B|---3---x----3---x----3---x----3---x-||---3---x----3---x----3---x----3---x-||
G|---0---x----0---x----0---x----2---x-||---0---x----0---x----0---x----2---x-||
D|-------x--------x--------x--------x-||-------x--------x--------x--------x-||
A|-3-----x--------x--------x--------x-||-3-----x--------x--------x--------x-||
E|-------x--3-----x--0-----x--2-----x-||-------x--3-----x--0-----x--2-----x-||

    "We are wild flowers"               "The city is our field of gold"


e|-------x--------x--------x--------x-||-------x--------x-----2-----------x-||
B|---3---x----3---x----3---x----3---x-||---3---x----3---x-----3-----------x-||
G|---0---x----0---x----0---x----2---x-||---0---x----0---x-----------------x-||
D|-------x--------x--------x--------x-||-------x--------x-----0-----------x-||
A|-3-----x--------x--------x--------x-||-3-----x--------x-----------------x-||
E|-------x--3-----x--0-----x--2-----x-||-------x--3-----x-----------------x-||

  "We've got wild fire"                 "In our bones"


[Chorus]

e|-------x--------x--------x--------x-||-------x--------x--------x--------x-||
B|---3---x----3---x----3---x----3---x-||---3---x----3---x----3---x----3---x-||
G|---0---x----0---x----0---x----2---x-||---0---x----0---x----0---x----2---x-||
D|-------x--------x--------x--------x-||-------x--------x--------x--------x-||
A|-3-----x--------x--------x--------x-||-3-----x--------x--------x--------x-||
E|-------x--3-----x--0-----x--2-----x-||-------x--3-----x--0-----x--2-----x-||

 "Bruises come and go" "But our hearts beat louder" "Than the thunder..."


e|-------x--------x--------x--------x-||-------x--------x--------x--------x-||
B|---3---x----3---x----3---x----3---x-||---3---x----3---x----3---x----3---x-||
G|---0---x----0---x----0---x----2---x-||---0---x----0---x----0---x----2---x-||
D|-------x--------x--------x--------x-||-------x--------x--------x--------x-||
A|-3-----x--------x--------x--------x-||-3-----x--------x--------x--------x-||
E|-------x--3-----x--0-----x--2-----x-||-------x--3-----x--0-----x--2-----x-||

  "We are not invincible" "But we're both stronger than we know" "In our bones, In our bones"


e|-------x--------x--------x--------x-||-------x--------x--------x--------x-||
B|---3---x----3---x----3---x----3---x-||---3---x----3---x----3---x----3---x-||
G|---0---x----0---x----0---x----2---x-||---0---x----0---x----0---x----2---x-||
D|-------x--------x--------x--------x-||-------x--------x--------x--------x-||
A|-3-----x--------x--------x--------x-||-3-----x--------x--------x--------x-||
E|-------x--3-----x--0-----x--2-----x-||-------x--3-----x--0-----x--2-----x-||

                                                         "In our bones, In our bones"


e|-------x--------x--------x--------x-||-------x--------x--------x--------x-||
B|---3---x----3---x----3---x----3---x-||---3---x----3---x----3---x----3---x-||
G|---0---x----0---x----0---x----2---x-||---0---x----0---x----0---x----2---x-||
D|-------x--------x--------x--------x-||-------x--------x--------x--------x-||
A|-3-----x--------x--------x--------x-||-3-----x--------x--------x--------x-||
E|-------x--3-----x--0-----x--2-----x-||-------x--3-----x--0-----x--2-----x-||

                                                         ""In our bones, In our bones"



***********************************
| x   deadnote
***********************************

            
            
Suggest correction
Creating personal tab
Creating personal tab
You can edit any tab online and save it as your Personal.

You can edit, replace or remove any tab part or add personal notes – all changes will be seen only by you.

Personal tabs can be accessed anytime from any device, even offline.
Learn more »
comments
print report bad tab
4 comments total. Showing first comments.
0 reply
to.gebhard 10 May 28, 2016 11:36 AM, edited at 03:37 pm

d

0 reply
to.gebhard 10 May 28, 2016 11:44 AM

[Intro]

e|-----------x--------x--------x--------x-|
B|-------3---x----3---x----3---x----3---x-|
G|-------0---x----0---x----0---x----2---x-|
D|-----------x--------x--------x--------x-|
A|-0-2-3-----x--------x--------x--------x-|
E|-----------x--3-----x--0-----x--2-----x-|

and the part with the D is not a full chord:

e|-------x--------x-----2-----------x-||
B|---3---x----3---x-----3-----------x-||
G|---0---x----0---x-----------------x-||
D|-------x--------x-----0-----------x-||
A|-3-----x--------x-----------------x-||
E|-------x--3-----x-----------------x-||

0 reply
kiaforever15 10 Jul 15, 2017 10:05 PM

i think it should be all 0--2/3 instead of only just 3
sounds good tho

guest
You may want to rate the tab now too:
select rating
Wanna post a correction for this tab? Suggest correction