Oops, an error
Loading. Please wait.

In Our Bones tab

version 2
version 2

Whole song

  • This is the tab of the "cute sound" in the pre-chorus and chorus.
118 views 9 this week
no commentswrite comment
1 2 3 4 5
3 more votes to show rating
add to favorites
×
Save as Personal and add changes to this tab that will be seen only by you. Learn more ›
×
You can save this tab as Personal to edit and correct it or add notes. All changes will be seen only by you. Learn more »
launch autoscroll
font size
0
reset
how to read this tab
guitar tuner
edit
Autoscroll
slow
fast
+/-
esc
set tempo
stop
About this tab version
This is the tab of the "cute sound" in the pre-chorus and chorus. Was this info helpful? Yes No
[Intro]
e|-----------x--------x--------x--------x-|
B|-------3---x----3---x----3---x----3---x-|
G|-------0---x----0---x----0---x----2---x-|  (x2)
D|-----------x--------x--------x--------x-|
A|-0h2h3-----x--------x--------x--------x-|
E|-----------x--3-----x--0-----x--2-----x-|

[Verse]
e|-------x--------x--------x--------x-|-------x--------x--------x--------x-|
B|---3---x----3---x----3---x----3---x-|---3---x----3---x----3---x----3---x-|
G|---0---x----0---x----0---x----2---x-|---0---x----0---x----0---x----2---x-|
D|-------x--------x--------x--------x-|-------x--------x--------x--------x-|
A|-3-----x--------x--------x--------x-|-3-----x--------x--------x--------x-|
E|-------x--3-----x--0-----x--2-----x-|-------x--3-----x--0-----x--2-----x-|

e|-------x--------x--------x--------x-|-------x--------x-----2-----------x-|
B|---3---x----3---x----3---x----3---x-|---3---x----3---x-----3-----------x-|
G|---0---x----0---x----0---x----2---x-|---0---x----0---x-----------------x-|
D|-------x--------x--------x--------x-|-------x--------x-----0-----------x-|
A|-3-----x--------x--------x--------x-|-3-----x--------x-----------------x-|
E|-------x--3-----x--0-----x--2-----x-|-------x--3-----x-----------------x-|

[Pre-Chorus]
e|-------x--------x--------x--------x-|-------x--------x--------x--------x-|
B|---3---x----3---x----3---x----3---x-|---3---x----3---x----3---x----3---x-|
G|---0---x----0---x----0---x----2---x-|---0---x----0---x----0---x----2---x-|
D|-------x--------x--------x--------x-|-------x--------x--------x--------x-|
A|-3-----x--------x--------x--------x-|-3-----x--------x--------x--------x-|
E|-------x--3-----x--0-----x--2-----x-|-------x--3-----x--0-----x--2-----x-|

e|-------x--------x--------x--------x-|-------x--------x-----2-----------x-|
B|---3---x----3---x----3---x----3---x-|---3---x----3---x-----3-----------x-|
G|---0---x----0---x----0---x----2---x-|---0---x----0---x-----------------x-|
D|-------x--------x--------x--------x-|-------x--------x-----0-----------x-|
A|-3-----x--------x--------x--------x-|-3-----x--------x-----------------x-|
E|-------x--3-----x--0-----x--2-----x-|-------x--3-----x-----------------x-|

[Pre-Chorus] 
(Guitar 2)
e|-19----19----19----19----19----19----20-19-17----|-19----19----19----19----19----19----20-19-17----|
B|----20----20----20----20----20----20----------20-|----20----20----20----20----20----20----------20-|
G|-------------------------------------------------|-------------------------------------------------|
D|-------------------------------------------------|-------------------------------------------------|
A|-------------------------------------------------|-------------------------------------------------|
E|-------------------------------------------------|-------------------------------------------------|

e|-19----19----19----19----19----19----20-19-17----|-19----19----19----19----|
B|----20----20----20----20----20----20----------20-|----20----20----20----20-|
G|-------------------------------------------------|-------------------------|  
D|-------------------------------------------------|-------------------------|
A|-------------------------------------------------|-------------------------|
E|-------------------------------------------------|-------------------------|

[Chorus]
e|-------x--------x--------x--------x-|-------x--------x--------x--------x-|
B|---3---x----3---x----3---x----3---x-|---3---x----3---x----3---x----3---x-|
G|---0---x----0---x----0---x----2---x-|---0---x----0---x----0---x----2---x-|
D|-------x--------x--------x--------x-|-------x--------x--------x--------x-|
A|-3-----x--------x--------x--------x-|-3-----x--------x--------x--------x-|
E|-------x--3-----x--0-----x--2-----x-|-------x--3-----x--0-----x--2-----x-|

e|-------x--------x--------x--------x-|-------x--------x--------x--------x-|
B|---3---x----3---x----3---x----3---x-|---3---x----3---x----3---x----3---x-|
G|---0---x----0---x----0---x----2---x-|---0---x----0---x----0---x----2---x-|
D|-------x--------x--------x--------x-|-------x--------x--------x--------x-|
A|-3-----x--------x--------x--------x-|-3-----x--------x--------x--------x-|
E|-------x--3-----x--0-----x--2-----x-|-------x--3-----x--0-----x--2-----x-|

[Chorus] 
(Guitar 2)
e|-19----19----19----19----19----19----20-19-17----|-19----19----19----19----19----19----20-19-17----|
B|----20----20----20----20----20----20----------20-|----20----20----20----20----20----20----------20-|
G|-------------------------------------------------|-------------------------------------------------|
D|-------------------------------------------------|-------------------------------------------------|
A|-------------------------------------------------|-------------------------------------------------|
E|-------------------------------------------------|-------------------------------------------------|

e|-19----19----19----19----19----19----20-19-17----|-19----19----19----19----19----19----------------|
B|----20----20----20----20----20----20----------20-|----20----20----20----20----20----20-13-12-10----|
G|-------------------------------------------------|----------------------------------------------12-|  
D|-------------------------------------------------|-------------------------------------------------|
A|-------------------------------------------------|-------------------------------------------------|
E|-------------------------------------------------|-------------------------------------------------|

e|-------x--------x--------x--------x-|
B|---3---x----3---x----3---x----3---x-|
G|---0---x----0---x----0---x----2---x-|
D|-------x--------x--------x--------x-|
A|-3-----x--------x--------x--------x-|
E|-------x--3-----x--0-----x--2-----x-|

(Guitar 2)
e|-15------------------------|
B|----13-12-10------12h13p12-|
G|-------------12-9----------| 
D|---------------------------|
A|---------------------------|
E|---------------------------|

[Verse]
e|-------x--------x--------x--------x-|-------x--------x--------x--------x-|
B|---3---x----3---x----3---x----3---x-|---3---x----3---x----3---x----3---x-|
G|---0---x----0---x----0---x----2---x-|---0---x----0---x----0---x----2---x-|
D|-------x--------x--------x--------x-|-------x--------x--------x--------x-|
A|-3-----x--------x--------x--------x-|-3-----x--------x--------x--------x-|
E|-------x--3-----x--0-----x--2-----x-|-------x--3-----x--0-----x--2-----x-|

e|-------x--------x--------x--------x-|-------x--------x-----2-----------x-|
B|---3---x----3---x----3---x----3---x-|---3---x----3---x-----3-----------x-|
G|---0---x----0---x----0---x----2---x-|---0---x----0---x-----------------x-|
D|-------x--------x--------x--------x-|-------x--------x-----0-----------x-|
A|-3-----x--------x--------x--------x-|-3-----x--------x-----------------x-|
E|-------x--3-----x--0-----x--2-----x-|-------x--3-----x-----------------x-|

[Pre-Chorus]
e|-------x--------x--------x--------x-|-------x--------x--------x--------x-|
B|---3---x----3---x----3---x----3---x-|---3---x----3---x----3---x----3---x-|
G|---0---x----0---x----0---x----2---x-|---0---x----0---x----0---x----2---x-|
D|-------x--------x--------x--------x-|-------x--------x--------x--------x-|
A|-3-----x--------x--------x--------x-|-3-----x--------x--------x--------x-|
E|-------x--3-----x--0-----x--2-----x-|-------x--3-----x--0-----x--2-----x-|

e|-------x--------x--------x--------x-|-------x--------x-----2-----------x-|
B|---3---x----3---x----3---x----3---x-|---3---x----3---x-----3-----------x-|
G|---0---x----0---x----0---x----2---x-|---0---x----0---x-----------------x-|
D|-------x--------x--------x--------x-|-------x--------x-----0-----------x-|
A|-3-----x--------x--------x--------x-|-3-----x--------x-----------------x-|
E|-------x--3-----x--0-----x--2-----x-|-------x--3-----x-----------------x-|

[Pre-Chorus] 
(Guitar 2)
e|-19----19----19----19----19----19----20-19-17----|-19----19----19----19----19----19----20-19-17----|
B|----20----20----20----20----20----20----------20-|----20----20----20----20----20----20----------20-|
G|-------------------------------------------------|-------------------------------------------------|
D|-------------------------------------------------|-------------------------------------------------|
A|-------------------------------------------------|-------------------------------------------------|
E|-------------------------------------------------|-------------------------------------------------|

e|-19----19----19----19----19----19----20-19-17----|-19----19----19----19----|
B|----20----20----20----20----20----20----------20-|----20----20----20----20-|
G|-------------------------------------------------|-------------------------|  
D|-------------------------------------------------|-------------------------|
A|-------------------------------------------------|-------------------------|
E|-------------------------------------------------|-------------------------|

[Chorus]
e|-------x--------x--------x--------x-|-------x--------x--------x--------x-|
B|---3---x----3---x----3---x----3---x-|---3---x----3---x----3---x----3---x-|
G|---0---x----0---x----0---x----2---x-|---0---x----0---x----0---x----2---x-|
D|-------x--------x--------x--------x-|-------x--------x--------x--------x-|
A|-3-----x--------x--------x--------x-|-3-----x--------x--------x--------x-|
E|-------x--3-----x--0-----x--2-----x-|-------x--3-----x--0-----x--2-----x-|

e|-------x--------x--------x--------x-|-------x--------x--------x--------x-|
B|---3---x----3---x----3---x----3---x-|---3---x----3---x----3---x----3---x-|
G|---0---x----0---x----0---x----2---x-|---0---x----0---x----0---x----2---x-|
D|-------x--------x--------x--------x-|-------x--------x--------x--------x-|
A|-3-----x--------x--------x--------x-|-3-----x--------x--------x--------x-|
E|-------x--3-----x--0-----x--2-----x-|-------x--3-----x--0-----x--2-----x-|

[Chorus]
(Guitar 2)
e|-19----19----19----19----19----19----20-19-17----|-19----19----19----19----19----19----20-19-17----|
B|----20----20----20----20----20----20----------20-|----20----20----20----20----20----20----------20-|
G|-------------------------------------------------|-------------------------------------------------|
D|-------------------------------------------------|-------------------------------------------------|
A|-------------------------------------------------|-------------------------------------------------|
E|-------------------------------------------------|-------------------------------------------------|

e|-19----19----19----19----19----19----20-19-17----|-19----19----19----19----19----19----------------|
B|----20----20----20----20----20----20----------20-|----20----20----20----20----20----20-13-12-10----|
G|-------------------------------------------------|----------------------------------------------12-|  
D|-------------------------------------------------|-------------------------------------------------|
A|-------------------------------------------------|-------------------------------------------------|
E|-------------------------------------------------|-------------------------------------------------|

e|-------x--------x--------x--------x-|-------x--------x--------x--------x-|
B|---3---x----3---x----3---x----3---x-|---3---x----3---x----3---x----3---x-|
G|---0---x----0---x----0---x----2---x-|---0---x----0---x----0---x----2---x-|
D|-------x--------x--------x--------x-|-------x--------x--------x--------x-|
A|-3-----x--------x--------x--------x-|-3-----x--------x--------x--------x-|
E|-------x--3-----x--0-----x--2-----x-|-------x--3-----x--0-----x--2-----x-|

e|-------x--------x--------x--------x-|-------x--------x--------x--------x-|
B|---3---x----3---x----3---x----3---x-|---3---x----3---x----3---x----3---x-|
G|---0---x----0---x----0---x----2---x-|---0---x----0---x----0---x----2---x-|
D|-------x--------x--------x--------x-|-------x--------x--------x--------x-|
A|-3-----x--------x--------x--------x-|-3-----x--------x--------x--------x-|
E|-------x--3-----x--0-----x--2-----x-|-------x--3-----x--0-----x--2-----x-|

(Guitar 2)
e|-15------------------------------|-15---------------------------|
B|----13-12-10------10-12-13-12----|----13-12-10------12h13p12----|
G|-------------12-9-------------12-|-------------12-9----------12-|
D|---------------------------------|------------------------------|
A|---------------------------------|------------------------------|
E|---------------------------------|------------------------------|

e|-15------------------------------|-15------------------------|
B|----13-12-10------10-12-13-12----|----13-12-10------12h13p12-|
G|-------------12-9-------------12-|-------------12-9----------|
D|---------------------------------|---------------------------|
A|---------------------------------|---------------------------|
E|---------------------------------|---------------------------|

[Bridge]
e|-------x--------x--------x--------x-|-------x--------x--------x--------x-|
B|---3---x----3---x----3---x----3---x-|---3---x----3---x----3---x----3---x-|
G|---0---x----0---x----0---x----2---x-|---0---x----0---x----0---x----2---x-|
D|-------x--------x--------x--------x-|-------x--------x--------x--------x-|
A|-3-----x--------x--------x--------x-|-3-----x--------x--------x--------x-|
E|-------x--3-----x--0-----x--2-----x-|-------x--3-----x--0-----x--2-----x-|

e|-------x--------x--------x--------x-|-------x--------x-----2-----------x-|
B|---3---x----3---x----3---x----3---x-|---3---x----3---x-----3-----------x-|
G|---0---x----0---x----0---x----2---x-|---0---x----0---x-----------------x-|
D|-------x--------x--------x--------x-|-------x--------x-----0-----------x-|
A|-3-----x--------x--------x--------x-|-3-----x--------x-----------------x-|
E|-------x--3-----x--0-----x--2-----x-|-------x--3-----x-----------------x-|

[Chorus]
e|-------x--------x--------x--------x-|-------x--------x--------x--------x-|
B|---3---x----3---x----3---x----3---x-|---3---x----3---x----3---x----3---x-|
G|---0---x----0---x----0---x----2---x-|---0---x----0---x----0---x----2---x-|
D|-------x--------x--------x--------x-|-------x--------x--------x--------x-|
A|-3-----x--------x--------x--------x-|-3-----x--------x--------x--------x-|
E|-------x--3-----x--0-----x--2-----x-|-------x--3-----x--0-----x--2-----x-|

e|-------x--------x--------x--------x-|-------x--------x--------x--------x-|
B|---3---x----3---x----3---x----3---x-|---3---x----3---x----3---x----3---x-|
G|---0---x----0---x----0---x----2---x-|---0---x----0---x----0---x----2---x-|
D|-------x--------x--------x--------x-|-------x--------x--------x--------x-|
A|-3-----x--------x--------x--------x-|-3-----x--------x--------x--------x-|
E|-------x--3-----x--0-----x--2-----x-|-------x--3-----x--0-----x--2-----x-|

(Guitar 2)
e|-19----19----19----19----19----19----20-19-17----|-19----19----19----19----19----19----20-19-17----|
B|----20----20----20----20----20----20----------20-|----20----20----20----20----20----20----------20-|
G|-------------------------------------------------|-------------------------------------------------|
D|-------------------------------------------------|-------------------------------------------------|
A|-------------------------------------------------|-------------------------------------------------|
E|-------------------------------------------------|-------------------------------------------------|

e|-19----19----19----19----19----19----20-19-17----|-19----19----19----19----19----19----------------|
B|----20----20----20----20----20----20----------20-|----20----20----20----20----20----20-13-12-10----|
G|-------------------------------------------------|----------------------------------------------12-|  
D|-------------------------------------------------|-------------------------------------------------|
A|-------------------------------------------------|-------------------------------------------------|
E|-------------------------------------------------|-------------------------------------------------|

e|-------x--------x--------x--------x-|-------x--------x--------x--------x-|
B|---3---x----3---x----3---x----3---x-|---3---x----3---x----3---x----3---x-|
G|---0---x----0---x----0---x----2---x-|---0---x----0---x----0---x----2---x-|
D|-------x--------x--------x--------x-|-------x--------x--------x--------x-|
A|-3-----x--------x--------x--------x-|-3-----x--------x--------x--------x-|
E|-------x--3-----x--0-----x--2-----x-|-------x--3-----x--0-----x--2-----x-|

e|-------x--------x--------x--------x-|-------x--------x--------x--------x-|
B|---3---x----3---x----3---x----3---x-|---3---x----3---x----3---x----3---x-|
G|---0---x----0---x----0---x----2---x-|---0---x----0---x----0---x----2---x-|
D|-------x--------x--------x--------x-|-------x--------x--------x--------x-|
A|-3-----x--------x--------x--------x-|-3-----x--------x--------x--------x-|
E|-------x--3-----x--0-----x--2-----x-|-------x--3-----x--0-----x--2-----x-|

(Guitar 2)
e|-15------------------------------|-15---------------------------|
B|----13-12-10------10-12-13-12----|----13-12-10------12h13p12----|
G|-------------12-9-------------12-|-------------12-9----------12-|
D|---------------------------------|------------------------------|
A|---------------------------------|------------------------------|
E|---------------------------------|------------------------------|

e|-15------------------------------|-15------------------------|
B|----13-12-10------10-12-13-12----|----13-12-10------12h13p12-|
G|-------------12-9-------------12-|-------------12-9----------|
D|---------------------------------|---------------------------|
A|---------------------------------|---------------------------|
E|---------------------------------|---------------------------|


************************************

| x  Dead note
| h  Hammer-on
| p  Pull-off

************************************

            
            
Suggest correction
Creating personal tab
Creating personal tab
You can edit any tab online and save it as your Personal.

You can edit, replace or remove any tab part or add personal notes – all changes will be seen only by you.

Personal tabs can be accessed anytime from any device, even offline.
Learn more »
Give kudos to tab author, rate the tab!
1 2 3 4 5
comments
print report bad tab
guest
You may want to rate the tab now too:
select rating
Wanna post a correction for this tab? Suggest correction