Oops, an error
Loading. Please wait.

Outsiders Tab

version 2
version 2

Whole song

  • How to play "Outsiders" by Against The Current.

Interactive

73 views 1 this week
no commentswrite comment
1 2 3 4 5
2 more votes to show rating
add to favorites
launch autoscroll
font size
0
reset
how to read this tab
guitar tuner
Autoscroll
slow
fast
+/-
esc
set tempo
stop
Help us to improve Ultimate-Guitar.com Take our survey!
×
Author
Difficulty
intermediate
About this tab version
How to play "Outsiders" by Against The Current. Was this info helpful? Yes No
Tempo: 125 bpm


[Verse]

e|-|----12-------------12/14-----------12-------------12/14----------------|
B|-|--------10------10--------12/14--------10------10--------12/14---------|
G|-|-----------------------------------------------------------------------|
D|-|-----------------------------------------------------------------------|
A|-|-----------------------------------------------------------------------|
E|-|-----------------------------------------------------------------------|

e|--------17--------17-17-----------------17---|
B|---14-------------------17-14--------14------|
G|---------------------------------------------|
D|---------------------------------------------|
A|---------------------------------------------|
E|---------------------------------------------|


[Bridge]

e|-|----------------------------12--9-----------------------|
B|-|-------9--9--------9--9-------------9--9----------------|
G|-|-------------11--------------------------------11--9----|
D|-|--------------------------------------------------------|
A|-|--------------------------------------------------------|
E|-|--------------------------------------------------------|


[Chorus]

e|--------------------------------------------------------------------------------|
B|--------------------------------------------------------------------------------|
G|-------------4---6---7-7-7-7-7---6---7---------------4---6---7-7-7-7-7---6---9--|
D|-7-7-7-7-7---4---6---7-7-7-7-7---6---7---7-7-7-7-7---4---6---7-7-7-7-7---6---9--|
A|-7-7-7-7-7---2---4---5-5-5-5-5---4---5---7-7-7-7-7---2---4---5-5-5-5-5---4---7--|
E|-5-5-5-5-5--------------------------------5-5-5-5-5-----------------------------|

e|-------------------------------------------------------------------------|
B|-------------------------------------------------------------------------|
G|-------------4---6---7-7-7-7-7---6---7---------------4---6---7-7-7-7-7---|
D|-4-4-4-4-4---4---6---7-7-7-7-7---6---7---4-4-4-4-4---4---6---7-7-7-7-7---|
A|-4-4-4-4-4---2---4---5-5-5-5-5---4---5---4-4-4-4-4---2---4---5-5-5-5-5---|
E|-2-2-2-2-2-------------------------------2-2-2-2-2-----------------------|


[Last Verse]

e|--------12-----------12--------------12-----------12--9------|
B|--9--9---------9--9------------9--9---------9--9-------------|
G|-------------------------------------------------------------|
D|-------------------------------------------------------------|
A|-------------------------------------------------------------|
E|-------------------------------------------------------------|



************************************

| /  Slide up

************************************
Suggest correction
Give kudos to tab author, rate the tab!
1 2 3 4 5
comments
print report bad tab
guest
You may want to rate the tab now too:
select rating
Wanna post a correction for this tab? Suggest correction