Oops, an error
Loading. Please wait.

Young And Relentless Tab

61 views 9 this week
no commentswrite comment
1 2 3 4 5
3 more votes to show rating
add to favorites
launch autoscroll
font size
0
reset
how to read this tab
guitar tuner
Autoscroll
slow
fast
+/-
esc
set tempo
stop
Help us to improve Ultimate-Guitar.com Take our survey!
×
Author
[Intro]
e|----------------------------|
B|----------------------------|
G|-5--5---9--9---7--7---------|
D|-5--5---9--9---7--7---------|
A|-3--3---7--7---5--5---------|
E|----------------------------|

e|-------------------------------|
B|-------------------------------|
G|-5--5---12---9--9---7--7-------|
D|-5--5---12---9--9---7--7-------|
A|-3--3---10---7--7---5--5-------|
E|-------------------------------|

[Verse]
e|----------------------------|
B|----------------------------|
G|-5--5---9--9---7--7---------|
D|-5--5---9--9---7--7---------|
A|-3--3---7--7---5--5---------|
E|----------------------------|

e|-------------------------------|
B|-------------------------------|
G|-5--5---12---9--9---7--7-------|
D|-5--5---12---9--9---7--7-------|
A|-3--3---10---7--7---5--5-------|
E|-------------------------------|

[Pre-Chorus]
e|------------------------------------|
B|------------------------------------|
G|-5------7------9------7-------------|
D|-5-x6---7-x6---9-x6---7-x6----------|
A|-3------5------7------5-------------|
E|-*------*------*------*-------------|

[Chorus]
e|---------------------------|
B|---------------------------|
G|--5-------------7----------|
D|--5-x6---5------7-x12------|x2
A|--3------5-x6---5----------|
E|---------3-----------------|

e|-----------------------------------|
B|-----------------------------------|
G|-5------------9------7-------------|
D|-5-x6--5------9-x6---7-x6----------|
A|-3-----5-x6---7------5-------------|
E|-------3---------------------------|


e|---------------------------|
B|---------------------------|
G|--5-------------7----------|
D|--5-x6---5------7-x12------|
A|--3------5-x6---5----------|
E|---------3-----------------|

[Intro]
[Verse x4
[Pre-Chorus]
[Chorus]
[Intro]
[Verse] x4
[Pre-chorus] 
[Chorus]
[Pre-Chorus] x 2 
[Chorus]
[Intro]
 

************************************

| x  Dead note 

************************************
Suggest correction
Give kudos to tab author, rate the tab!
1 2 3 4 5
comments
print report bad tab
guest
You may want to rate the tab now too:
select rating
Wanna post a correction for this tab? Suggest correction