Oops, an error
Loading. Please wait.

And The Great Cold Death Of The Earth Tab

version 1
version 1

Whole song

Interactive

10,165 views 6 this week
no commentswrite comment
1 2 3 4 5
x 5
add to favorites
launch autoscroll
font size
0
reset
how to read this tab
guitar tuner
Autoscroll
slow
fast
+/-
esc
set tempo
stop
Help us to improve Ultimate-Guitar.com Take our survey!
×
-------------------------------------------------------------------------------
...And The Great Cold Death of the Earth - Agalloch
-------------------------------------------------------------------------------
Tabbed by: Jeff Cameron 
Email: jcameron99@gmail.com

Tuning: Standard

Guitar 1, acoustic strumming                                                    X5
e|---------------------------------------------------------------------------|
B|-------------------3-3333-3-3333--3-3333-3-3333----------------------------|
G|----0-0000-0-0000--0-0000-0-0000--0-0000-0-0000--0-0000-0-0000-------------|
D|----2-2222-2-2222--0-0000-0-0000--2-2222-2-2222--2-2222-2-2222-------------|
A|----2-2222-2-2222--2-2222-2-2222--3-3333-3-3333--2-2222-2-2222-------------|
E|----0-0000-0-0000--3-3333-3-3333-----------------0-0000-0-0000-------------|

e|---------------------------------------------------------------------------|
B|------------------3-3333-3-3333-3-3333-3-3333--0-0000-0-0000---------------|
G|----0-0000-0-0000-0-0000-0-0000-0-0000-0-0000--2-2222-2-2222---------------|
D|----2-2222-2-2222-0-0000-0-0000-2-2222-2-2222--2-2222-2-2222---------------|
A|----2-2222-2-2222-2-2222-2-2222-3-3333-3-3333--0-0000-0-0000---------------|
E|----0-0000-0-0000-3-3333-3-3333--------------------------------------------|

e|------------------------------------|-------------|------------------------|
B|----3-3333-3-3333—-0-0000-0-0000—---|3-3333-3-3333|--(x4)------------------|
G|----0-0000-0-0000—-2-2222-2-2222—---|0-0000-0-0000|------------------------|
D|----2-2222-2-2222—-2-2222-2-2222—---|2-2222-2-2222|------------------------|
A|----3-3333-3-3333--0-0000-0-0000----|3-3333-3-3333|------------------------|
E|------------------------------------|-------------|------------------------|

Guitar 2, distortion
Samples of this line play at various times through the song.
e|---------------------------------------------------------------------------|
B|---------------------------------------------------------------------------|
G|------------------------/5-4—2p0-2-/4-4h5----------------------------------|
D|------4---4/5-5~~----------------------------------------------------------|
A|--------2-----------3------------------------------------------------------|
E|--0------------------------------------------------------------------------|


Under the string bass line play an E minor chord, then return to main theme.

Outro, acoustic strumming, repeat to end
e|---------------------------------------------------------------------------|
B|--0-000-00-0000-00--0-000-00-000100--0-003-30-0003000—-0-0010000-000-00----|
G|--0-000-00-0000-00--2-222-22-222220--0-000-00-0000000—-2-2222220-000-00----|
D|--2-222-22-2222-20--2-222-22-222220--2-222-22-2222220—-2-2222220-222-20----|
A|--2-222-22-2222-20--0-000-00-000000—-3-333-33-3333330—-0-0000000-333-30----|
E|--0-000-00-0000-00--0-000-00-000000----------------------------------------|


That’s it, hope you enjoy!


| /  slide up
| \  slide down
| h  hammer-on
| p  pull-off
| ~  vibrato
| +  harmonic
| x  Mute note
===============================================================================

Suggest correction
comments
print report bad tab
guest
You may want to rate the tab now too:
select rating
Wanna post a correction for this tab? Suggest correction