Oops, an error
Loading. Please wait.

As Embers Dress The Sky Tab

version 1
version 1

Whole song

Interactive

7,123 views 3 this week
2 commentsread comments
1 2 3 4 5
excellent!
x 3
add to favorites
launch autoscroll
font size
0
reset
how to read this tab
guitar tuner
Autoscroll
slow
fast
+/-
esc
set tempo
stop
Help us to improve Ultimate-Guitar.com Take our survey!
×
Contributor
Difficulty
Noremak 139
intermediate
As Embers Dress the Sky - Agalloch
Tabbed by noremakseggob@yahoo.com     myspace.com/backwardst

No one has tabbed this song, and probly never will. So I guess Ill give it a try...

Heres the WHOLE song! yes all 8 minutes of it...I think most of it is pretty accurate, 
at least good enough

Intro:

e----------------------------------------------------------------|
B----------------------------------------------------------------|
G----------------------------------------------------------------| (x2)
D-9-9-9-9-9-9-7-7-7-7-7-7-5-5-5-4-5-4-2-2-2-2-2-2----------------|
A-7-7-7-7-7-7-7-7-7-7-7-7-5-5-5-5-5-5-3-3-3-3-3-3----------------|
E----------------------------------------------------------------|


This is layered over the intro:

E-----------15-------14-------12-------14-------15-12----17-15-14-12\-|
B-/12-12-12----12-12----12-12----12-12----12-12-------12--------------|
G---------------------------------------------------------------------|
D---------------------------------------------------------------------|
A---------------------------------------------------------------------|
E---------------------------------------------------------------------|
                                                                      (x5)
E-----------15-------14-------12-------14-15-14-12----14-12-----------|
B-/12-12-12----12-12----12-12----12-12-------------15-------15-14-12\-|
G---------------------------------------------------------------------|
D---------------------------------------------------------------------|
A---------------------------------------------------------------------|
E---------------------------------------------------------------------|

E----------------------------------------------------------------|
B----------------------------------------------------------------|
G----------------------------------------------------------------|
D-9-9-9-9-9-9-5-5-5-7-7-7-4-4-4-4-4-4-2-2-2-2-2-2----------------| (x4)
A-7-7-7-7-7-7-7-7-7-7-7-7-5-5-5-5-5-5-3-3-3-3-3-3----------------|
E----------------------------------------------------------------|

And this goes over that:

E----------------------------------------------------------------|
B----------------------------------------------------------------|
G-/9--12-11-9-----12-11-9----12-11-10-12/14-12-11-9-11-12--------|
D-------------12----------10-------------------------------------| (x4)
A----------------------------------------------------------------|
E----------------------------------------------------------------|


Back to intro riff:

e----------------------------------------------------------------|
B----------------------------------------------------------------|
G----------------------------------------------------------------| (x2)
D-9-9-9-9-9-9-7-7-7-7-7-7-5-5-5-4-5-4-2-2-2-2-2-2----------------|
A-7-7-7-7-7-7-7-7-7-7-7-7-5-5-5-5-5-5-3-3-3-3-3-3----------------|
E----------------------------------------------------------------|


solo
E----------------------------------------------------------------|
B----------------------------------------------------------------|
G-----2---4--0-------------------4\---2-------2--4--0------------|
D-2/5----------4--0-0h2---/5-4------5---4---5---------4---5-4----|
A----------------------------------------------------------------|
E----------------------------------------------------------------|


E----------------------------------------------------------------|
B----------------------------------------------------------------|
G---------------------------------------------------5--5-4-2---4-|
D-2--4-2-4-4/5-----------------2--4-2-4-5-4-2-0-2-4----------5---|
A---------------3--5-3-5-5/7-5-----------------------------------|
E----------------------------------------------------------------|

*tremelo pick

E----------------------------------------------------------------------------|
B----------------------------------------------------------------------------|
G--------4*--5*-4*---------4*-5*--4*-2*---------4*-5*-4*-7*-9*--7*-9*-7*-5---|
D-2*----------------4*--------------------2*---------------------------------|
A----------------------------------------------------------------------------|
E----------------------------------------------------------------------------|


Acoustic part:

E----------------------------------------------------------------|
B-------------------3/5----3h5p3---------------------------------|
G----4-2-0-4-2-0-----------------5-4--2--4-5---2-4---------------|
D-2--------------2---------------------------5-----2-------------|
A----------------------------------------------------------------|
E----------------------------------------------------------------|


(Then play intro 8 more times)

Acoustic:

E----------------------------------------------------------------|
B-------0-----------0------------0-------------------------------|
G-----0---0-------0---0--------0---0---0-----0-------------------|(x4)
D---2-------2---2-------2----2-------2---2-2---2-2---------------|
A-3-----------3------------5-------------------------------------|
E----------------------------------------------------------------|


E------------------------------------------------------------------|
B-----3---3-----3---3-----3-----------3---3-----3---3---3----------|
G---0---0---0-----0---0-----0---0---0---0---0-----0---0---0----0---|
D-2-----------2---------2-----2------------------------------------|
A---------------------------------0-----------0--------------0-----|
E------------------------------------------------------------------|


E---------------------------------|
B-----3---3-----3---3-----3-------|
G---0---0---0-----0---0-----0---0-|
D-2-----------2---------2-----2---|
A---------------------------------|
E---------------------------------|

E----------------------------------------------------------------------------|
B-----3---3---------------3----3---------3---------------5----5---------5----|
G---0---0---0---------0-----0----0---------0---------0-----0----0---------0--|
D-------------------2---2-----2----2---2-----2-----4---4-----4----4---4------|
A-0-----------0-2-3------------------3---------3/5------------------5--------|
E----------------------------------------------------------------------------|

                                                                          (x2)
E----------------------------------------------------------------|
B---------3----3--------3-------------5----5---------5-----------|
G-----0-----0----0--------0-------0-----0----0---------0---------|
D---2---2-----2----2---2----2---4---4-----4----4---4-----4-------|
A-3------------------3--------5------------------5---------------|
E----------------------------------------------------------------|


Clean solo:

E-------2h3p2-------------------------------------------------------|
B-0-3-5-------5-3-3h5-----------------------------------------------|
G-----------------------5-4-5-2h4p2---------------------------------|
D-----------------------------------5-4-2---------------------------|
A-------------------------------------------------------------------|
E-------------------------------------------------------------------|
  . . .       . . .
E--------------------15------15------15-----17------13-------------|
B-5\0--1/5--5\0---------16------16------16-----18------12----------|
G----------------0---------15------15-------------16------11-------|
D------------------------------------------------------------------|
A------------------------------------------------------------------|
E------------------------------------------------------------------|


E-15------15------15----15-------------15\12------------------------------|
B----16------16------16----16-------12--------12h10-----10---9---8-9-8----|
G-------15------15------------15----------------------9----9---9----------|
D-------------------------------------------------------------------------|
A-------------------------------------------------------------------------|
E-------------------------------------------------------------------------|
                                                      .  . . . . . . .


Acoustic:


E----------------------------------------------------------------|
B----------------------------------------------------------------|
G---0---0---0-------0---0---2-0-2---0---0---0---0---0---0--------|  (x4)
D-2---5---2---2-0-----5---2-----------5-------5-------5----------|
A-----------------5---------------0-------0-------3-------3-2----|
E----------------------------------------------------------------|

play on the end of the 4th

E-------------------------------------------------------------------|
B-------------------------------------------------------------------|
G-0-0-0-0-0---------------------------------------------------------|
D-2-2-2-2-2---------------------------------------------------------|
A-3-3-3-3-3---------------------------------------------------------|
E-------------------------------------------------------------------|

Distorted:


E-----------------------------------------------------------------|
B-----------------------------------------------------------------|
G-----------------------------------------------------------------|
D---5--------5----5---5--------7-----0--------0----0---5--------3-|
A-7-7-777777-7-77-7-5-5-555555-5-0-3-3-333333-3-33-3-5-5-555555-5-|
E-----------------------------------------------------------------|
  .   ......   ..   .   ......   . .   ......   ..   .   ......


E----------------------------------------------------------------|
B----------------------------------------------------------------|
G-4-2h4-0----------5-4h5p2---------------------------------------| (x4)
D---------4-5-7-5----------5-7-5-4-------------------------------|
A----------------------------------------------------------------|
E----------------------------------------------------------------|

Play till end =D

E-----------------------------------------------------------------|
B-----------------------------------------------------------------|
G-----------------------------------------------------------------|
D---5--------5----5---5--------7-----0--------0----0---5--------3-|
A-7-7-777777-7-77-7-5-5-555555-5-0-3-3-333333-3-33-3-5-5-555555-5-|
E-----------------------------------------------------------------|
Suggest correction What's this?
You can suggest a correction to this tab. Community and Mods will review your correction and vote to approve or reject it.
comments
We did not receive enough feedback on this tab! Please rate:
print report bad tab
1 2 3 4 5
2 comments total.
0 reply
G Illuminati 12 wrote on June 3 2010, 06:24 pm

Thanks for the tab man! I love this band and playing their songs is entertaining

0 reply
G Illuminati 12 wrote on June 7 2010, 06:00 pm

Wow i've been at this tab for the past two days and its quite difficult!

I want to post or [tab]
guest
You may want to rate the tab now too:
select rating
Please do not post tabs as comments. Select "correction" instead!