Oops, an error
Loading. Please wait.

Falling Snow Bass Tab

version 1
version 1

Whole song

Interactive

3,574 views 3 this week
no commentswrite comment
1 2 3 4 5
excellent!
x 3
add to favorites
launch autoscroll
font size
0
reset
guitar tuner
Autoscroll
slow
fast
+/-
esc
set tempo
stop
Help us to improve Ultimate-Guitar.com Take our survey!
×
Author
Difficulty
intermediate
Intro

G: ---
D: ---
A: ---
E: 0-0-0-0

G: ---------|
D: ---------|
A: ---------|
E: 3-5-1-1--| X3

G: ------------------|
D: ------------------|
A: ------------------|
E: 3-5-1-1-1-1-1111--| X1

Verse 1
"The water pours its embracing arms around the stone"
G: -------------------------------------|
D: -------------------------------------|
A: -------------------------------------|
E: 33333333-11111111-66666666-55555555--| X7

"Where the ice forms, where life ends"
G: ----------------------|
D: ----------------------|
A: ----------------------|
E: 3-1-6-5-3-1-6-5-1-----|

Verse 2
"The stone is by the crimson flood, swallowed"
G: --------------------------------------------------------|
D: --------------------------------------------------------|
A: --------------------------------------------------------|
E: 33333333-11111111-66666666-55555555---------------------| X4

Bridge
G: --------------------------------------------------------|
D: --------------------------------------------------------|
A: --------------------------------------------------------|
E: 33333333-6666-8888-2222222222222222---------------------| X4

G: ----
D: ----
A: ----
E: 5-5

G: --------------|
D: --------------|
A: --------------|
E: 3-5-1-1-------| X4

Chorus
“Red birds escape from my wounds and return as falling snow"
G: --------------------------------------------------------|
D: --------------------------------------------------------|
A: --------------------------------------------------------|
E: 33333333-11111111-66666666-55555555---------------------| X8

"The snow, the bitter snowfall"
G: --------------------------------------------------------|
D: --------------------------------------------------------|
A: --------------------------------------------------------|
E: 33333333-11111111-66666666-55555555---------------------| X4

G: --------------------------------------------------------|
D: --------------------------------------------------------|
A: --------------------------------------------------------|
E: 33333333-6666-8888-2222222222222222---------------------| X4

G: ----
D: ----
A: ----
E: 5-5

G: --------------|
D: --------------|
A: --------------|
E: 3-5-1-1-------| X4

Final Verse
"The snow has fallen and raised this White Mountain on which you will die"
G: --------------|
D: --------------|
A: --------------|
E: 3-5-1-1-------| X4

G: ------------------------------------------------------|
D: ------------------------------------------------------|
A: ------------------------------------------------------|
E: 33333333-66666666-2222222222222222 X3

G: -----------------------------|
D: -----------------------------|
A: -----------------------------|
E: 33333333-66666666 X1

G: --------------|
D: --------------|
A: --------------|
E: 3-6-1-3-------| X1

G: -----------------|
D: -----------------|
A: -----------------|
E: 33-6-11-3--------| X3

G: --------------------------------------------------------|
D: --------------------------------------------------------|
A: --------------------------------------------------------|
E: 22222222-66666666-11111111-3333333 X14------------------|

G: ------------------------------------------------------------------------------|
D: ------------------------------------------------------------------------------|
A: ------------------------------------------------------------------------------|
E: 22222222-66666666-11-11-33-333-22-22-66-666-11-11-33-333----------------------| X1


It sounds about right, although theres a chance of a few hiccups. Ah well, enjoy -Andy.
Suggest correction new What's this?
You can suggest a correction to this tab. Community and Mods will review your correction and vote to approve or reject it.
comments
We did not receive enough feedback on this tab! Please rate:
print report bad tab
1 2 3 4 5
guest
You may want to rate the tab now too:
select rating
Please do not post tabs as comments. Select "correction" instead!