Oops, an error
Loading. Please wait.

Our Fortress Is Burning Ii - Bloodbirds Tab

version 1
version 1

Whole song

Interactive

4,537 views 1 this week
1 commentread comment
1 2 3 4 5
excellent!
x 5
add to favorites
launch autoscroll
font size
0
reset
how to read this tab
guitar tuner
Tab Pro tools
  • play this tab
  • loop segment
  • change instrument
  • show fretboard
  • metronome
×
Best way to learn
"Our Fortress Is Burning Ii - Bloodbirds"
Autoscroll
slow
fast
+/-
esc
set tempo
stop
Difficulty
intermediate
Here it goes (aprox)  standart E A D G B E

|--------------------------------------------------------|
|----16----15-15---15--13-13--13---11-11-/11-10----------|
|-12----12-------12--12-----12--12--------------10-10-/12| x5
|--------------------------------------------------------|
|--------------------------------------------------------|
|--------------------------------------------------------|
  (trem)                                A                                 B
|------------------------------------------|--------------------------------|
|------------------------------------------|--------------------------------|
|-12------15------14------17---15---14---12|-12------15------14------17---19|
|------------------------------------------|--------------------------------|
|------------------------------------------|--------------------------------|
|------------------------------------------|--------------------------------|
then A, then B again

|----13--------------------------------------------------|
|-15---15-15-15b--13-16-13-13-13b-13-15-13-11-11-/11-10-8|
|--------------------------------------------------------|
|--------------------------------------------------------| x4
|--------------------------------------------------------|
|--------------------------------------------------------|
   (trem)
|-----------------------------|
|-----------------------------|
|-7------2------5------3------| x4
|-----------------------------|
|-----------------------------|
|-----------------------------|
  C
|-13---15----17----13-15-17----15----13----13-15-18----17----15----|
|---15----15----15----------15----15----15----------15----15----15-|
|------------------------------------------------------------------|
|------------------------------------------------------------------|
|------------------------------------------------------------------|
|------------------------------------------------------------------|

-13-15-15----13----------------|
----------15----13-15-11-13-10-|
-------------------------------|  x4
-------------------------------|
-------------------------------|
-------------------------------|
  (trem)
|----------------------------------------------------------------|
|---------------------------------------------------16-----------|
|-15------14------17-------15------19-------17--------------19---|
|----------------------------------------------------------------|
|----------------------------------------------------------------|
|----------------------------------------------------------------|

-----------------------------------------------------------------|
-----------------------------------------------------------------|
-17---15---12------15------14---17---15---14---12-------15---14--|
-----------------------------------------------------------------|
-----------------------------------------------------------------|
-----------------------------------------------------------------|

--------------------------|
--------------------------|
-17---15---17---19--------|
--------------------------|
--------------------------|
--------------------------|

then C x2
                                                                   D
|-------------------------------------------------------------------------|
|----------------------------13-13----13-13----13-13-15-15-13-15-15-13-15-|
|-14-15-15-14-15-15-14-15-15-------15-------15----------------------------|
|-------------------------------------------------------------------------|
|-------------------------------------------------------------------------|
|-------------------------------------------------------------------------|

-------------------------|
-16-13-15----13----------|
----------15----14-15-14-| x2
-------------------------|
-------------------------|
-------------------------|

then C x2

then D x2 hold on last note to:

|---------------------------------------------|
|---------------------------------------------|
|-7----10--8--7----12--10--7----10--8--5------| x4
|---------------------------------------------|
|---------------------------------------------|
|---------------------------------------------|

ends at:

|-----|
|-----|
|--7--|
|-----|
|-----|
|-----|
comments
print report bad tab
1 comment total.
0 reply
B-tati wrote on September 7 2014, 10:25 pm

Can you tab the rhythm guitar ?

I want to post or [tab]
guest
You may want to rate the tab now too:
select rating
Please do not post tabs as comments. Select "correction" instead!