Oops, an error
Loading. Please wait.

Our Fortress Is Burning Ii Bloodbirds Tab

1,937 views 3 this week
2 commentsread comments
1 2 3 4 5
please rate
add to favorites
launch autoscroll
font size
0
reset
how to read this tab
guitar tuner
Autoscroll
slow
fast
+/-
esc
set tempo
stop
Help us to improve Ultimate-Guitar.com Take our survey!
×
Contributor
Difficulty
progbass 1,030
novice
amended other tab with backing chords.

Intro
e-------13----12~~~-----12-----10~~~-----10----------------|
b---10-----10--------10----10--------10-----10--13~~~------|
g----------------------------------------------------------|
d----------------------------------------------------------|
a----------------------------------------------------------|
E----------------------------------------------------------|

e---------------------------|
b---13--12--10-10/12-12/13--|
g---------------------------|
d---------------------------|
a---------------------------|
E---------------------------|

      Am7    Amb7   Amsus4  Am       Amadd9th

e--1----0-----0------0------0------------------------------|
b--0----0-----3------1------0-------0-------0--------------|
g--2----2-----2------2------2---------2-2/4----------------|
d--2----2-----2------2------2------------------------------|
a--0----0-----0------0------0------------------------------|
E----------------------------------------------------------|

|---------------------------------------------------------------|
|---------------------------------------------------------------|
|--6(x14)---9(x14)---7(x14)---11(x10)---9(x10)---8(x10)---------|
|---------------------------------------------------------------|
|---------------------------------------------------------------|
|---------------------------------------------------------------|


--------------------------------------------------------|
--------------------------------------------------------|
--6(x14)---9(x14)---7(x14)---13(x10)---15(x10)----------|
--------------------------------------------------------|
--------------------------------------------------------|
--------------------------------------------------------|

|---------------------------------------------------------------|
|---------------------------------------------------------------|
|--6(x14)---9(x14)---7(x14)---11(x10)---9(x10)---8(x10)---------|
|---------------------------------------------------------------|
|---------------------------------------------------------------|
|---------------------------------------------------------------|

----------------------------------------------------------------------|
----------------------------------------------------------------------|
--6(x14)---9(x14)---7(x14)---12(repeat note as long as song does)-----|
----------------------------------------------------------------------|
----------------------------------------------------------------------|
----------------------------------------------------------------------|
""Repeat each note in bars above as long as the song does""


|---------------------------------------------------------------|
|--13--15-------------------12--14--------------------9--11-----|
|----------12--11---14b-------------11--10---13b----------------|
|---------------------------------------------------------------|
|---------------------------------------------------------------|
|---------------------------------------------------------------|

-------------------------------|
-------------------------------|
--9--8---10b---11b--9-9-8-8----|Play 4 times
-------------------------------|
-------------------------------|
-------------------------------|

""Repeat each note in bar below as long as the song does""
|----------------------------------------|
|----------------------------------------|
|----------------------------------------|
|----------------------------------------|Play 3 times
|---11(x16)---8(x16)---10(x16)----7(x16)-|
|----------------------------------------|
 ""Repeat each note in bar above as long as the song does""


|--------------------------------------------------------------------------|
|--------------------------------------------------------------------------|
|-------------12(x14)--8(6x)--9(6x)--13(10x)--10(14x)--15(repeat as heard)-|
|--------------------------------------------------------------------------|
|---11(x16)----------------------------------------------------------------|
|--------------------------------------------------------------------------|

|---------------------------------------------------------------|
|--12-9---10-8---13-10---11-12--14-11---13-10---12-9---13-14----|
|---------------------------------------------------------------|
|---------------------------------------------------------------|
|---------------------------------------------------------------|
|---------------------------------------------------------------|

---------------------------------------------------------------|
--16-13---14-11---13-10---11-12--12-9--11-8--10-7--9-6---------|
---------------------------------------------------------------|
---------------------------------------------------------------|Play 4 times
---------------------------------------------------------------|
---------------------------------------------------------------|

|-------------------------------------------------------------------|
|-------------------------------------------------------------------|
|--9(x24)---8(x24)---11(x24)---9(x24)---14(x24)---12(x24)---15(x24--|
|-------------------------------------------------------------------|
|-------------------------------------------------------------------|
|-------------------------------------------------------------------|

-----------------------------------------------------------------|
-----------------------------------------------------------------|
--13(x14)---9(x10)---7(x8)---11(x22)---9(x16)---8(x16)---10/11---|
-----------------------------------------------------------------|
-----------------------------------------------------------------|
-----------------------------------------------------------------|

-----------------------|
-----------------------|
--9(x10)--8(x6)--9/7---|
-----------------------|
-----------------------|
-----------------------|


---------------------------------------------------------------|
---------------------------------------------------------------|
--8(x16)--11(x12)--9(x10)----10(x10)--11(x10)--9(x10)--11(x10)-|
---------------------------------------------------------------|
---------------------------------------------------------------|
---------------------------------------------------------------|

------------------------------------------||
------------------------------------------||
---12(repeat note as long as song does)---||
------------------------------------------||
------------------------------------------||
------------------------------------------||

most credit goes to unknownperson13@hotmail.com, although the intro was me
Suggest correction What's this?
You can suggest a correction to this tab. Community and Mods will review your correction and vote to approve or reject it.
comments
We did not receive enough feedback on this tab! Please rate:
print report bad tab
1 2 3 4 5
2 comments total.
0 reply
Roscio 213 wrote on May 27 2008, 02:46 pm

The Part with bendings is absolutely wrong...

0 reply
Demoxonil 22 wrote on October 27 2009, 06:33 am

not even close!

I want to post or [tab]
guest
You may want to rate the tab now too:
select rating
Please do not post tabs as comments. Select "correction" instead!