Oops, an error
Loading. Please wait.

The Isle Of Summer Tab

version 1
version 1

Whole song

Interactive

10,344 views 12 this week
2 commentsread comments
1 2 3 4 5
excellent!
x 10
add to favorites
launch autoscroll
font size
0
reset
how to read this tab
guitar tuner
Tab Pro tools
  • play this tab
  • loop segment
  • change instrument
  • show fretboard
  • metronome
Autoscroll
slow
fast
+/-
esc
set tempo
stop
Contributor
Difficulty
intermediate
-------------------------------------------------------------------------------
                             The Isle of Summer - Agalloch
-------------------------------------------------------------------------------
Tabbed by: Jeff Cameron
Email: jcameron99@gmail.com

Tuning: Standard

There are some harmonies and extra parts which I didn’t tab, but these are the main 
you should know.

Riff 1
e|---------------------------------------------------------------------------|
B|---------------------------------------------------------------------------|
G|-------------------------4-------------------------------------------------|
D|--4---4h5-4-2h4p2-0--0-----0-----------------------------------------------|
A|--2-2----------------2-2---------------------------------------------------|
E|--0------------------3-------3-0-------------------------------------------|

Riff 1 (guitar 2)
e|---------------------------------------------------------------------------|
B|---7--8-7-8h10p8p7---------------------------------------------------------|
G|-------------------9-7-9---------------------------------------------------|
D|---------------------------------------------------------------------------|
A|---------------------------------------------------------------------------|
E|---------------------------------------------------------------------------|

Riff 2
e|---------------------------------------------------------------------------|
B|----------0---------------1p0-------------0--------------------------------|
G|------2-----2-------0---------0-2-----2-----2------------------------------|
D|----2---2-----2-------2-------------2---2-----2----------------------------|
A|--0-------------0-3-----3---------0-------------------5-------2------------|
E|------------------------------------------------0h2h3-3—0h2h3-3------------|

Riff 2 (Guitar 2)
e|----5---8-7-8-10--8-7-8-8-5--8-7-5—3---------------------------------------|
B|---------------------------------------------------------------------------|
G|---------------------------------------------------------------------------|
D|---------------------------------------------------------------------------|
A|---------------------------------------------------------------------------|
E|---------------------------------------------------------------------------|

Riff 3 (electric, delay, played over Riff 1)
e|---------------------------------------------------------------------------|
B|----8p7---8p7--------------------------------------------------------------|
G|--------9-----9------------------------------------------------------------|
D|---------------------------------------------------------------------------|
A|---------------------------------------------------------------------------|
E|---------------------------------------------------------------------------|

Riff 4
e|--------------------------------------------------0-0---3p0----------------|
B|----------------------------8p7------3-3—--3h5----5-5-3--------------------|
G|-------0---2h4-2-0------7-------7----4-4-4--------0-0----------------------|
D|-----0---0------------7---7----------4-4-----------------------------------|
A|--------------------5--------------2------------3--------------------------|
E|---3-----------------------------------------------------------------------|

There you have it, enjoy.

| /  slide up
| \  slide down
| h  hammer-on
| p  pull-off
| ~  vibrato
| +  harmonic
| x  Mute note
===============================================================================
comments
print report bad tab
2 comments total.
0 reply
Cathrag wrote on October 12 2008, 03:56 pm

Perfect tab. Thanks.

0 reply
alexng83 wrote on October 12 2008, 06:37 pm

excellent tab! great job!

I want to post or [tab]
guest
You may want to rate the tab now too:
select rating
Please do not post tabs as comments. Select "correction" instead!