Oops, an error
Loading. Please wait.

The Isle Of Summer Tab

version 2
version 2

Whole song

Interactive

1,938 views 1 this week
1 commentread comment
1 2 3 4 5
excellent!
x 3
add to favorites
launch autoscroll
font size
0
reset
how to read this tab
guitar tuner
Autoscroll
slow
fast
+/-
esc
set tempo
stop
Help us to improve Ultimate-Guitar.com Take our survey!
×
Author
#----------------------------------PLEASE NOTE---------------------------------#
#This file is the author's own work and represents their interpretation of the #
#song. You may only use this file for private study, scholarship, or research. #
#------------------------------------------------------------------------------##

                               THE ISLE OF SUMMER
                             As recorded by Agalloch
                         (From the 2008 Album THE WHITE)

Music by Agalloch
Arranged by Agalloch
Transcribed by Devon Borden, AKA Metorical

Tuning: E Standard (E A D G B E)

Note: This is the exact same as my Power Tab version which is also on this
site (except for the last note which has been corrected). This is being
submitted for anyone who doesn't have Power Tab and still wants to learn
this song.

-Devon

============================================================================


 Wicker Man Intro
  Q=90
 4/4
  Wx8
|--------|
|--------|
|--------|
|--------|
|--------|
|--------|


 Guitar Intro
  Emadd2                Gmaj7
 4/4
  Gtr I
              |-3-|                                |-3-|
  Q  E a Q  E S S S E   Q  E Q  E Q    Q  E a Q  E S S S E   Q  E Q  E Q
|---------------------|--------------|---------------------|------------------|
|---------------------|--------------|---------------------|------------------|
|---------------------|------4-------|---------------------|------4-----------|
|-4----4h5--4-2h4p2-0-|-0-------0----|-4----4h5--4-2h4p2-0-|-0-------0--------|
|-2--2----------------|-2--2---------|-2--2----------------|-2--2-------------|
|-0-------------------|-3---------3--|-0-------------------|-3---------3------|


  Gtr I
              |-3-|
  Q  E a Q  E S S S E   Q  E Q  E Q
|---------------------|--------------|
|---------------------|--------------|
|---------------------|------4-------|
|-4----4h5--4-2h4p2-0-|-0-------0----|
|-2--2----------------|-2--2---------|
|-0-------------------|-3---------3--|
|
| Gtr II
| W                          W
|---------------------|--------------|
|---------------------|--------------|
|---------------------|--------------|
|---------------------|--------------|
|---------------------|--------------|
|---------------------|--------------|


                   |-3--|
    Q   E a Q   E  S S  S  E   Q   E Q   E Q
||---------------------------|-----------------||
||o--------------------------|----------------o||
||---------------------------|-------4---------||
||--4-----4h5---4--2h4p=2--0-|-0---------0-----||
||o-2---2--------------------|-2---2----------o||
||--0------------------------|-3-----------3---||
|
|   Q.    Q   E T  T S  E      Q.    Q.    Q
||---------------------------|-----------------||
||o-7-----8---7-8h10p8p(7)---|----------------o||
||---------------------------|-9-----7-----9---||
||---------------------------|-----------------||
||o--------------------------|----------------o||
||---------------------------|-----------------||


  Gtr I
               |---3----|
  Q   E a Q  E S    S   S  E     Q   E Q   E  Q
|-----------------------------|------------------|
|-----------------------------|------------------|
|-----------------------------|--------4---------|
|-4-----4h5--4-2h===4p==2--0--|--0---------0-----|
|-2---2-----------------------|--2---2-----------|
|-0---------------------------|--3------------3--|
|
| Gtr II
| Q.      Q  E T  T   S    E     Q.    Q.     Q
|-----------------------------|------------------|
|-7-------8--7-8h10p==8p==(7)-|------------------|
|-----------------------------|--9-----7------9--|
|-----------------------------|------------------|
|-----------------------------|------------------|
|-----------------------------|------------------|
|
| Gtr III
| Q.      Q  E Q                 Q.    Q.     Q
|-5-------7--5-8--------------|------------------|
|-----------------------------|-12-----8-----10--|
|-----------------------------|------------------|
|-----------------------------|------------------|
|-----------------------------|------------------|
|-----------------------------|------------------|


                 |---3----|
    Q   E a Q  E S    S   S  E     Q   E Q   E  Q     4x
||------------------------------|---------------------||
||o-----------------------------|--------------------o||
||------------------------------|--------4------------||
||--4-----4h5--4-2h===4p==2--0--|--0---------0--------||
||o-2---2-----------------------|--2---2-------------o||
||--0---------------------------|--3------------3-----||
|
|   Q.      Q  E T  T   S    E     Q.    Q.     Q     4x
||------------------------------|---------------------||
||o-7-------8--7-8h10p==8p==(7)-|--------------------o||
||------------------------------|--9-----7------9-----||
||------------------------------|---------------------||
||o-----------------------------|--------------------o||
||------------------------------|---------------------||
|
|   Q.      Q  E Q                 Q.    Q.     Q     4x
||--5-------7--5-8--------------|---------------------||
||o-----------------------------|-12-----8-----10----o||
||------------------------------|---------------------||
||------------------------------|---------------------||
||o-----------------------------|--------------------o||
||------------------------------|---------------------||


 Main Theme
  A5                      C
  E   E E E E E E  E       E  E E  E     S S E  Q
|-----------------------|--------------------------|
|-----------0-----------|----------------1p0-------|
|-------2-----2---------|-----0--------------0--2--|
|-----2---2-----2-------|-------2------------------|
|-0----------------0----|--3-------3---------------|
|-----------------------|--------------------------|
|
| H..              S  S    E  Q    S  S  Q      Q
|-5----------------8--7-|--8--7----8--7--8------8--|
|-----------------------|--------------------------|
|-----------------------|--------------------------|
|-----------------------|--------------------------|
|-----------------------|--------------------------|
|-----------------------|--------------------------|
|
| H..              S  S    E  Q    S  S  Q      Q
|-8---------------12-10-|-12-15---12-10-12-----12--|
|-----------------------|--------------------------|
|-----------------------|--------------------------|
|-----------------------|--------------------------|
|-----------------------|--------------------------|
|-----------------------|--------------------------|


  A5                      D/F#       G
  E   E E E E E E  S  S   E Q  S S E Q.
|-----------------------|------------------|
|-----------0-----------|------------------|
|-------2-----2---------|------------------|
|-----2---2-----2-------|------------------|
|-0---------------------|---5--------2-----|
|------------------0h=1-|-2-2--0h2-3-3-----|
|
| H..              S  S   H      H
|-5----------------8--7-|------------------|
|-----------------------|-7------8---------|
|-----------------------|------------------|
|-----------------------|------------------|
|-----------------------|------------------|
|-----------------------|------------------|
|
| H..              S  S   H      H
|-8---------------12-10-|-5------7---------|
|-----------------------|------------------|
|-----------------------|------------------|
|-----------------------|------------------|
|-----------------------|------------------|
|-----------------------|------------------|


            |-3-|
  E   E E E S S S E E  E       E  E E  E     S S E  Q
|---------------------------|--------------------------|
|-----------0h1p0-----------|----------------1p0-------|
|-------2---------2---------|-----0--------------0--2--|
|-----2---2---------2-------|-------2------------------|
|-0--------------------0----|--3-------3---------------|
|---------------------------|--------------------------|
|
| H..                  S  S    E  Q    S  S  Q      Q
|-5--------------------8--7-|--8-10----8--7--8------8--|
|---------------------------|--------------------------|
|---------------------------|--------------------------|
|---------------------------|--------------------------|
|---------------------------|--------------------------|
|---------------------------|--------------------------|
|
| H..                  S  S    E  Q    S  S  Q      Q
|-8-------------------12-10-|-12-15---12-10-12-----12--|
|---------------------------|--------------------------|
|---------------------------|--------------------------|
|---------------------------|--------------------------|
|---------------------------|--------------------------|
|---------------------------|--------------------------|


  E   E E E E E E  S  S   E Q  S S E Q.
|-----------------------|------------------|
|-----------0-----------|------------------|
|-------2-----2---------|------------------|
|-----2---2-----2-------|------------------|
|-0---------------------|---5--------2-----|
|------------------0h=1-|-2-2--0h2-3-3-----|
|
| H..              S  S   H        H
|-5----------------8--7-|------------------|
|-----------------------|-7--------8-------|
|-----------------------|------------------|
|-----------------------|------------------|
|-----------------------|------------------|
|-----------------------|------------------|
|
| H..              S  S   H        H
|-8---------------12-10-|-5--------7-------|
|-----------------------|------------------|
|-----------------------|------------------|
|-----------------------|------------------|
|-----------------------|------------------|
|-----------------------|------------------|


 Distortion *Use delay for the distorted guitar*
  Gtr I
                |-3-|
  Q   E a Q  E  S S S E   Q   E Q  E  Q
|-----------------------|----------------|
|-----------------------|----------------|
|-----------------------|-------4--------|
|-4-----4h5--4--2h4p2-0-|-0--------0-----|
|-2---2-----------------|-2---2----------|
|-0---------------------|-3-----------3--|
|
| Gtr IV
| E E E   Q  Q.           E E E Q  Q.
|-----------------------|----------------|
|-8p7--------7----------|-8p7------7-----|
|-----9------7----------|-----9----7-----|
|---------9-------------|-------9--------|
|-----------------------|----------------|
|-----------------------|----------------|


                |-3-|
  Q   E a Q  E  S S S E   Q   E Q  E  Q
|-----------------------|----------------|
|-----------------------|----------------|
|-----------------------|-------4--------|
|-4-----4h5--4--2h4p2-0-|-0--------0-----|
|-2---2-----------------|-2---2----------|
|-0---------------------|-3-----------3--|
|
| E E E   Q  Q.           E E E Q  Q.
|-----------------------|----------------|
|-8p7--------7----------|-8p7------7-----|
|-----9------7----------|-----9----7-----|
|---------9-------------|-------9--------|
|-----------------------|----------------|
|-----------------------|----------------|


                |-3-|
  Q   E a Q  E  S S S E   Q   E Q  E  Q
|-----------------------|----------------|
|-----------------------|----------------|
|-----------------------|-------4--------|
|-4-----4h5--4--2h4p2-0-|-0--------0-----|
|-2---2-----------------|-2---2----------|
|-0---------------------|-3-----------3--|
|
| E E E   Q  Q.           E E E Q  Q.
|-----------------------|----------------|
|-8p7--------7----------|-8p7------7-----|
|-----9------7----------|-----9----7-----|
|---------9-------------|-------9--------|
|-----------------------|----------------|
|-----------------------|----------------|


                |-3-|
  Q   E a Q  E  S S S E   Q   E Q  E  Q
|-----------------------|----------------|
|-----------------------|----------------|
|-----------------------|-------4--------|
|-4-----4h5--4--2h4p2-0-|-0--------0-----|
|-2---2-----------------|-2---2----------|
|-0---------------------|-3-----------3--|
|
| E E E   Q  Q.           E E E Q  Q.
|-----------------------|----------------|
|-8p7--------7----------|-8p7------7-----|
|-----9------7----------|-----9----7-----|
|---------9-------------|-------9--------|
|-----------------------|----------------|
|-----------------------|----------------|


 Main Theme Reprise
  Gtr I
  E   E E E E E E  E       E  E E  E     S S E  Q
|-----------------------|--------------------------|
|-----------0-----------|----------------1p0-------|
|-------2-----2---------|-----0--------------0--2--|
|-----2---2-----2-------|-------2------------------|
|-0----------------0----|--3-------3---------------|
|-----------------------|--------------------------|
|
| Gtr II
| H..              S  S    E  Q    S  S  Q      Q
|-5----------------8--7-|--8--7----8--7--8------8--|
|-----------------------|--------------------------|
|-----------------------|--------------------------|
|-----------------------|--------------------------|
|-----------------------|--------------------------|
|-----------------------|--------------------------|
|
| Gtr III
| H..              S  S    E  Q    S  S  Q      Q
|-8---------------12-10-|-12-15---12-10-12-----12--|
|-----------------------|--------------------------|
|-----------------------|--------------------------|
|-----------------------|--------------------------|
|-----------------------|--------------------------|
|-----------------------|--------------------------|


  E   E E E E E E  S  S   E Q  S S E Q.
|-----------------------|------------------|
|-----------0-----------|------------------|
|-------2-----2---------|------------------|
|-----2---2-----2-------|------------------|
|-0---------------------|---5--------2-----|
|------------------0h=1-|-2-2--0h2-3-3-----|
|
| H..              S  S   H        H
|-5----------------8--7-|------------------|
|-----------------------|-7--------8-------|
|-----------------------|------------------|
|-----------------------|------------------|
|-----------------------|------------------|
|-----------------------|------------------|
|
| H..              S  S   H        H
|-8---------------12-10-|-5--------7-------|
|-----------------------|------------------|
|-----------------------|------------------|
|-----------------------|------------------|
|-----------------------|------------------|
|-----------------------|------------------|


            |-3-|
  E   E E E S S S E E  E       E  E E  E     S S E  Q
|---------------------------|--------------------------|
|-----------0h1p0-----------|----------------1p0-------|
|-------2---------2---------|-----0--------------0--2--|
|-----2---2---------2-------|-------2------------------|
|-0--------------------0----|--3-------3---------------|
|---------------------------|--------------------------|
|
| H..                  S  S    E  Q    S  S  Q      Q
|-5--------------------8--7-|--8-10----8--7--8------8--|
|---------------------------|--------------------------|
|---------------------------|--------------------------|
|---------------------------|--------------------------|
|---------------------------|--------------------------|
|---------------------------|--------------------------|
|
| H..                  S  S    E  Q    S  S  Q      Q
|-8-------------------12-10-|-12-15---12-10-12-----12--|
|---------------------------|--------------------------|
|---------------------------|--------------------------|
|---------------------------|--------------------------|
|---------------------------|--------------------------|
|---------------------------|--------------------------|


  E   E E E E E E  E       E E E E H
|-----------------------|---------------|
|-----------0-----------|---------------|
|-------2-----2---------|--0-0-0-0-0----|
|-----2---2-----2-------|--2---2---2----|
|-0----------------0----|--3-3-3-3-3----|
|-----------------------|---------------|
|
| H..              S  S    W
|-5----------------8--7-|--8------------|
|-----------------------|---------------|
|-----------------------|---------------|
|-----------------------|---------------|
|-----------------------|---------------|
|-----------------------|---------------|
|
| H..              S  S    W
|-8---------------12-10-|-12------------|
|-----------------------|---------------|
|-----------------------|---------------|
|-----------------------|---------------|
|-----------------------|---------------|
|-----------------------|---------------|


   Distortion w/Flang
    G5                   A7sus4/D
    Gtr I
      E E E E E S S Q      E E E E E E Q
||---------------------|------------------|
||o--------------------|-----------8p7----|
||--------0---2s4s2-0--|-------7-------7--|
||------0---0----------|-----7---7--------|
||o--------------------|---5--------------|
||----3----------------|------------------|
|
|   Gtr IV
|     W                    W
||--^10----------------|-^10--------------|
||o-^12----------------|-^10--------------|
||--^12----------------|-^-7--------------|
||---------------------|------------------|
||o--------------------|------------------|
||---------------------|------------------|


  Bm                C
   Q  E  Q  E E E    Q  E  Q  E E E  4x
|-----------------|-----0-^0----3p0--||
|-----3-^3----3s5-|-----5-^5--3-----o||
|-----4-^4--4-----|-----0-^0---------||
|-----4-^4--------|------------------||
|--2--------------|--3--------------o||
|-----------------|------------------||
|
|  W                 W               4x
|-^7--------------|-^8---------------||
|-^8--------------|-^8--------------o||
|-^9--------------|-^9---------------||
|-----------------|------------------||
|-----------------|-----------------o||
|-----------------|------------------||


 Outro
              |-3-|                                |-3-|
  Q  E a Q  E S S S E   Q  E Q  E Q    Q  E a Q  E S S S E   Q  E Q  E Q
|---------------------|--------------|---------------------|--------------|
|---------------------|--------------|---------------------|--------------|
|---------------------|------4-------|---------------------|------4-------|
|-4----4h5--4-2h4p2-0-|-0-------0----|-4----4h5--4-2h4p2-0-|-0-------0----|
|-2--2----------------|-2--2---------|-2--2----------------|-2--2---------|
|-0-------------------|-3---------3--|-0-------------------|-3---------3--|


              |-3-|                                |-3-|
  Q  E a Q  E S S S E   Q  E Q  E Q    Q  E a Q  E S S S E
|---------------------|--------------|---------------------|
|---------------------|--------------|---------------------|
|---------------------|------4-------|---------------------|
|-4----4h5--4-2h4p2-0-|-0-------0----|-4----4h5--4-2h4p2-0-|
|-2--2----------------|-2--2---------|-2--2----------------|
|-0-------------------|-3---------3--|-0-------------------|


  H.=H
  Q  E Q  E Q    Q.  H    +E    +W
|--------------|--------------|--------*|
|--------------|--------------|--------*|
|------4-------|--------------|--------*|
|-0-------0----|-4---5----(5)-|-(5)----*|
|-2--2---------|-2------------|--------*|
|-3---------3--|-0------------|--------*|


Duration Legend
---------------
W - whole; H - half; Q - quarter; E - 8th; S - 16th; T - 32nd; X - 64th; a - acciaccatura
+ - note tied to previous; . - note dotted; .. - note double dotted
Uncapitalized letters represent notes that are staccato (1/2 duration)
Irregular groupings are notated above the duration line
Duration letters will always appear directly above the note/fret number it represents the
duration for.  Duration letters with no fret number below them represent rests.  Multi-
bar rests are notated in the form Wxn, where n is the number of bars to rest for.  Low
melody durations appear below the staff

Tablature Legend
----------------
 h   - hammer-on
 p   - pull-off
 b   - bend
 pb  - pre-bend
 r   - bend release (if no number after the r, then release immediately)
 /\  - slide into or out of (from/to "nowhere")
 s   - legato slide
 S   - shift slide
  - natural harmonic
[n]  - artificial harmonic
n(n) - tapped harmonic
 ~   - vibrato
 tr  - trill
 T   - tap
 TP  - trem. picking
 PM  - palm muting
\n/  - tremolo bar dip; n = amount to dip
 \n  - tremolo bar down
 n/  - tremolo bar up
/n\  - tremolo bar inverted dip
 =   - hold bend; also acts as connecting device for hammers/pulls
 <>  - volume swell (louder/softer)
 x   - on rhythm slash represents muted slash
 o   - on rhythm slash represents single note slash

Misc Legend
-----------
 |  - bar
||  - double bar
||o - repeat start
o|| - repeat end
*|  - double bar (ending)
 :  - bar (freetime)
 $  - Segno
 &  - Coda
Tempo markers -  = BPM(8/16=s8/s16), where s8 = swing 8ths, s16 = swing 16ths


***************************************************************************************
* Generated using Power Tab Editor by Brad Larsen - http://powertab.guitarnetwork.org *
***************************************************************************************
Suggest correction
Give kudos to tab author, rate the tab!
1 2 3 4 5
comments
print report bad tab
1 comment total.
0 reply
Zenith-Point 10 wrote on June 13 2009, 12:42 pm

Pretty much perfect

guest
You may want to rate the tab now too:
select rating
Wanna post a correction for this tab? Suggest correction