Oops, an error
Loading. Please wait.

Afflicted intro tab

version 1
version 1

Intro

Whole song

4,951 views 9 this week
2 commentsread comments
1 2 3 4 5
2 more votes to show rating
add to favorites
×
Save as Personal and add changes to this tab that will be seen only by you. Learn more ›
×
You can save this tab as Personal to edit and correct it or add notes. All changes will be seen only by you. Learn more »
launch autoscroll
font size
0
reset
how to read this tab
guitar tuner
edit
Autoscroll
slow
fast
+/-
esc
set tempo
stop
Author
Difficulty
-----------------------------------------------------------------------
                             AFFLICTED – Age Of Daze
-----------------------------------------------------------------------
Tabbed by: trenda
Email:

Tuning: Standard
http://www.ageofdaze.com/

Song is played tuned down ½ step.  Chorus is basically Em, C, G, D.  Great band, 
there are no tabs already for them.  Enjoy.

Intro

    Q  Q  Q  Q      Q  Q  Q  Q     b  Q  Q  Q     E E  Q  Q  Q
e --------------|---------------|--------------|----------------|
B --------------|---------------|--------------|----------------|
G --------4-----|---------------|--------7-----|-------2--4—-5--|
D -----2-----2--|------4--5-----|-----5-----5--|----2-----------|
A --------------|--/5-----------|--------------|--0-------------|
E --0-----------|------------3--|--------------|----------------|


| /  slide up
| \  slide down
| h  hammer-on
| p  pull-off
| ~  vibrato
| +  harmonic
| x  Mute note
======================================================================

            
            
Suggest correction
Creating personal tab
Creating personal tab
You can edit any tab online and save it as your Personal.

You can edit, replace or remove any tab part or add personal notes – all changes will be seen only by you.

Personal tabs can be accessed anytime from any device, even offline.
Learn more »
Give kudos to tab author, rate the tab!
1 2 3 4 5
comments
print report bad tab
2 comments total.
0 reply
im 2 hi 2 c 26 Mar 02, 2008 05:24 AM

solid intro dude. I'd update it and add in the verse and then the guitar chords you hear at 2:32. those parts of the song are way better then the intro. I wanna learn them. If you would of posted them up, this tab would be bitchin. Still good if ya just want the intro though.

0 reply
Zerkur 10 Jul 17, 2008 02:07 PM

the rest of the song is pretty easy to figure out the verse is just

e|---------------------------------------------------------------------------|
B|----------------------------------------------------------------------------|
G|-----------------------4-4-4-4-4-4-4-4-4-4-4-4------------------------------|
D|---2--2-4-5--5--5-4-5--4-4-4-4-4-4-4-4-4-4-4-4------------------------------|
A|---2--2------5--5------2-2-2-2-2-2-2-2-2-2-2-2------------------------------|
E|---0--0------3--3-----------------------------------------------------------|

and the chorus is just strumming the chords he mentioned at the top of the tab

guest
You may want to rate the tab now too:
select rating
Wanna post a correction for this tab? Suggest correction