Oops, an error
Loading. Please wait.

Breakdown Bass Tab

701 views 1 this week
no commentswrite comment
1 2 3 4 5
please rate
add to favorites
launch autoscroll
font size
0
reset
guitar tuner
Autoscroll
slow
fast
+/-
esc
set tempo
stop
Help us to improve Ultimate-Guitar.com Take our survey!
×
Author
Difficulty
novice
Verse
|----------------|---------------2----||
|-5-5----5-5-----|---2-3-5---3-5------||
|-----5------5---|-3-------5----------||
|----------------|--------------------||

Interludes
|---------------|---------------||
|-5--5---5--5---|---2-3-5-------||
|------5------5-|-3-------5-----||  x4
|---------------|---------------||

Chorus
|-----------------------|--------------------||
|-5-3-2-0---------------|-----------0-2-3----||
|-----------1-1-1-1-----|-3-3-3-3-3----------|| X2
|-----------------------|--------------------||


Post Chorus
|-----------------|-----------------|-----------------|-----------------|
|-----------------|-----------------|-----------------|-----------------|
|-2-2-2-2-2-2-2-2-|-3-3-3-3-3-3-3-3-|-2-2-2-2-2-2-2-2-|-3-3-3-3-3-3-3-3-|
|-----------------|-----------------|-----------------|-----------------|



|-----------------|-----------------|-----------------|-----------------|----||
|-----------------|-----------------|-----------------|-----------------|----||
|-2-2-2-2-3-3-3-3-|-2-2-2-2-3-3-3-3-|-2-3-2-3-2-3-2-3-|-2-3-2-3-2-3-2-3-|-2--||
|-----------------|-----------------|-----------------|-----------------|----||
Suggest correction
Give kudos to tab author, rate the tab!
1 2 3 4 5
comments
print report bad tab
guest
You may want to rate the tab now too:
select rating
Please do not post tabs as comments. Select "correction" instead!