Oops, an error
Loading. Please wait.

Living In Darkness tab

version 2
version 2

Whole song

215 views 3 this week
no commentswrite comment
1 2 3 4 5
3 more votes to show rating
add to favorites
×
Save as Personal and add changes to this tab that will be seen only by you. Learn more ›
×
You can save this tab as Personal to edit and correct it or add notes. All changes will be seen only by you. Learn more »
launch autoscroll
font size
0
reset
how to read this tab
guitar tuner
edit
Autoscroll
slow
fast
+/-
esc
set tempo
stop
Author
Difficulty
-------------------------------------------------------------------------------
                             Living In Darkness - Agent Orange
-------------------------------------------------------------------------------
Tabbed by: Bluefox9516
E-mail: bluefox9516@gmail.com

Tuning: E Standard
Intro
e|---------------------------------------------------------------------------|
B|---------------------------------------------------------------------------|
G|-9---9---9-----------------------------------------------------------------|
D|-9---9---9---Pick-Slide----------------------------------------------------|
A|-7---7---7-----------------------------------------------------------------|
E|---------------------------------------------------------------------------|
Main Riff
e|---------------------------------------------------------------------------|
B|---------------------------------------------------------------------------|
G|9-9-9-7-7-7-7------7-7-7-5-5-5-5-------------------------------------------|
D|9-9-9-7-7-7-7------7-7-7-5-5-5-5-------------------------------------------|
A|7-7-7-7-7-7-7------5-5-5-5-5-5-5-------------------------------------------|
E|---------------------------------------------------------------------------|
Chorus (figure out the strumming/sliding patterns yourself, everything else is there.)
e|---------------------------------------------------------------------------|
B|---------------------------------------------------------------------------|
G|---------------------------------------------------------------------------|
D|9/1010101010/9/1010101010/9/10101010---------------------------------------|
A|9/1010101010/9/1010101010/9/10101010---------------------------------------|
E|7/8-8-8-8-0--7/8-8-8-8-0--7/8-8-8-8----------------------------------------|
Solo (might be a little off, but this is the closest I could get it, feel free to post corrections.)
e|---------------------------------------------------------------------------|
B|12-12-12-12-12-12-12-12-12-12-12-12-12-12-12-12-12-12----------------------|
G|13-14-14-14-13-13-13-14-14-14-13-13-13-14-14-14-13-13-13-------------------|
D|------------------------------------------------------14-------------------|
A|---------------------------------------------------------------------------|
E|---------------------------------------------------------------------------|
Solo
e|---------------------------------------------------------------------------|
B|10-10-10-10-10-10-10-10-10-10-10-10-10-10-10-10-10-10----------------------|
G|11-12-12-12-11-11-11-12-12-12-11-11-11-12-12-12-11-11-11-------------------|
D|------------------------------------------------------12-------------------|
A|---------------------------------------------------------------------------|
E|---------------------------------------------------------------------------|
Solo
e|---------------------------------------------------------------------------|
B|12-12-12-12-12-12-12-12-12-12-12-12-12-12-12-12-12-12----------------------|
G|13-14-14-14-13-13-13-14-14-14-13-13-13-14-14-14b14-13-13-------------------|
D|------------------------------------------------------14-------------------|
A|---------------------------------------------------------------------------|
E|---------------------------------------------------------------------------|
Solo
e|---------------------------------------------------------------------------|
B|10-10-10-10-10-10-10-10-10-10-10-10-10-10-10-10-10-10----------------------|
G|11-12-12-12-11-11-11-12-12-12-11-11-11-12-12-12b12-11-11-------------------|
D|------------------------------------------------------12-------------------|
A|---------------------------------------------------------------------------|
E|---------------------------------------------------------------------------|
Outro
e|---------------------------------------------------------------------------|
B|---------------------------------------------------------------------------|
G|9-9-9-9-7-7-7-7------------------------------------------------------------|
D|9-9-9-7-7-7-7-5------------------------------------------------------------|
A|7-7-7---5-5-5--------------------------------------------------------------|
E|---------------------------------------------------------------------------|
  x x x   x x x
I think that's it, folks, almost everything you need to play this song is here, listen to the song for strum
patterns and song structure. Thanks for reading my tab, and have a wonderful day!

************************************

| /   slide up
| \   slide down
| h   hammer-on
| p   pull-off
| ~   vibrato
| +   harmonic
| x   Mute note
| b   Bend
| pb  Pre-bend
| br  Bend release
| pbr Pre-bend release
| brb Bend release bend

************************************
Suggest correction
Creating personal tab
Creating personal tab
You can edit any tab online and save it as your Personal.

You can edit, replace or remove any tab part or add personal notes – all changes will be seen only by you.

Personal tabs can be accessed anytime from any device, even offline.
Learn more »
Give kudos to tab author, rate the tab!
1 2 3 4 5
comments
print report bad tab
guest
You may want to rate the tab now too:
select rating
Wanna post a correction for this tab? Suggest correction