Oops, an error
Loading. Please wait.

Chosen To Stay Tab

807 views 1 this week
no commentswrite comment
1 2 3 4 5
please rate
add to favorites
launch autoscroll
font size
0
reset
how to read this tab
guitar tuner
Autoscroll
slow
fast
+/-
esc
set tempo
stop
Help us to improve Ultimate-Guitar.com Take our survey!
×
Title		Chosen To Stay
Artist	        Agent Steel
Album		Unstoppable Force

tabbed by : hsinn3r
Contact : ShadowBlade_69@yahoo.com

Comments :
Speed Metal rules. anyway, i've included all of the riffs
(hopefully), as accurate as i could. hope you enjoy it, it's 
a great song. no solo, sorry... also the accoustic intro
is kinda buried under the vocals, but it's probably correct.
both guitars play the same riffs, except for riff 5
the structure is quite confusing, sorry. i would suggest 
learning all the riffs, and memorize the order they are played
from the actual song. ignore the timing, too

Legend

h hammer on
/ slide up
* palm mute

---------------------------------------------------------------


accoustic intro			     Am
|--------------------------------------------------------------|
|---------------------------------------3----------------------|
|--------5-----4---2-------------------2-----------------------|
|------7-----5-----------7-----5------2------------------------|
|...-7-----5-----3-----7-----5-------0-------------------------|
|--------------------8-----7-----3--0--------------------------|

riff 1
|--------------------------------------------------------------|
|--------------------------------------------------------------|
|--------------------------------------------------------------|
|----------------9--7-------------------------7----------------|
|-2--------------7--5--9-10---10--------------5--9-------------|
|-0-000-000-000--------7--8----8-888-888-888-----7--7-8-7-5-3--|
    *** *** ***                  *** *** ***        * * * * * 

riff 2
|--------------------------------------------------------------|
|--------------------------------------------------------------|
|--------------------------------------------------------------|
|----------------9--7-------------------------7----------------|
|-2--------------7--5--9-10---10--------------5--9-------------|
|-0-000-000-000--------7--8----8-888-888-888-----7----8-7-5-3--|
    *** *** ***                  *** *** ***          * * * * 

riff 3
|--------------------------------------------------------------|
|--------------------------------------------------------------|
|--------------------------------------------------------------|
|-4-------------5-----2-----4-------------5-----7--------------|
|-2-222-222-222-3-333-0-000-2-222-222-222-3-333-5-555----------|
|--------------------------------------------------------------|
    *** *** ***   ***   ***   *** *** ***   ***   ***

riff 4
|--------------------------------------------------------------|
|--------------------------------------------------------------|
|--------------------------------------------------------------|
|-4-------------5-----2-----4-------------5------9--7----------|
|-2-222-222-222-3-333-0-000-2-222-222-222-3-333--7--5----------|
|--------------------------------------------------------------|
    *** *** ***   ***   ***   *** *** ***   ***

riff 5
|--------------------------------------------------------------|
|--------------------------------------------------------------|
|--------------------------------------------------------------|Gtr I
|-9--14--12--11------------------------------------------------|
|-7--12--10---9--5h7-777-777-777-5h7-777-777-777---------------|
|--------------------------------------------------------------|
|		     *** *** ***     *** *** ***	       |
|							       |
|--------------------------------------------------------------|
|--------------------------------------------------------------|
|--------------------------------------------------------------|Gtr II
|-9--14--12--11------------------------------------------------|
|-7--12--10---9--5h7-777-777-777-9h10-101010-101010-101010-----|
|--------------------------------------------------------------|
                     *** *** ***       * * *  * * *  * * *

riff 6
|--------------------------------------------------------------|
|--------------------------------------------------------------|
|--------------------------------------------------------------|
|-9--12--11--7------------------5--4---------------------------|
|-7--10---9--5-5h7-777-777-777--3--2-5-------------------------|
|------------------------------------3-------------------------|
		   *** *** ***

riff 7
|--------------------------------------------------------------|
|--------------------------------------------------------------|
|--------------------------------------------------------------|
|-4-------------5-----2-----4-------------5------7-------------|
|-2-222-222-222-3-333-0-000-2-222-222-222-3-333--5-------------|
|--------------------------------------------------------------|
    *** *** ***   ***   ***   *** *** ***   ***

riff 8
|--------------------------------------------------------------|
|--------------------------------------------------------------|
|---------------------------------5/6--------------------------|
|-9--12-11-7----------------5-4-5-3/4----------------5-4-2-2---|
|-7--10--9-5-4--------------3-2-3-----4--------------3-2-0-0---|
|------------2-222-222-222------------2-222-222-222------------|
               *** *** ***              *** *** ***

solo rythm 1
|--------------------------------------------------------------|
|--------------------------------------------------------------|
|---------------------5/6--------------------------------------|
|---------------5-4-5-3/4---------------5-4-2------------------|
|-4-------------3-2-3-----4-------------3-2-0------------------|
|-2-222-222-222-----------2-222-222-222------------------------|
    *** *** ***             *** *** ***

solo rythm 2
|--------------------------------------------------------------|
|--------------------------------------------------------------|
|---------------------5/6--------------------------------------|
|---------------5-4-5-3/4---------------5-4-2-2----------------|
|-4-------------3-2-3-----4-------------3-2-0-0----------------|
|-2-222-222-222-----------2-222-222-222------------------------|
    *** *** ***             *** *** ***

accoustic intro (1x)
riff 1 (2x)
riff 2 (4x)
riff 3 (1x)
riff 4 (1x)
riff 5 (1x)
riff 6 (1x)
riff 2 (4x)
riff 3 (1x)
riff 7 (1x)
riff 5 (1x)
riff 8 (1x)
solo rythm 1 (1x)
solo rythm 2 (1x)
solo rythm 1 (1x)
solo rythm 2 (1x)
solo rythm 1 (1x)
riff 1 (1x)
riff 2 (4x)
riff 3 (1x)
riff 7 (1x)
riff 5 (3x)
riff 8 (1x)
solo rythm (1x)
Suggest correction
What's this?
You can suggest a correction to this tab. Community and Mods will review your correction and vote to approve or reject it.
comments
We did not receive enough feedback on this tab! Please rate:
print report bad tab
1 2 3 4 5
guest
You may want to rate the tab now too:
select rating
Please do not post tabs as comments. Select "correction" instead!