Oops, an error
Loading. Please wait.

Unstoppable Force Tab

1,659 views 15 this week
no commentswrite comment
1 2 3 4 5
please rate
add to favorites
launch autoscroll
font size
0
reset
how to read this tab
guitar tuner
Tab Pro tools
  • play this tab
  • loop segment
  • change instrument
  • show fretboard
  • metronome
×
Best way to learn
"Unstoppable Force"
Autoscroll
slow
fast
+/-
esc
set tempo
stop
Contributor
Difficulty
intermediate
Band:  Agent Steel
Album: Unstoppable Force
Song:  Unstoppable Force

Copyright (c)  (Music for Nations) (1989)
Version 1.0 - (04/05/06)




.  - palm mute           /  - slide up to
\  - slide down to       ~  - vibrato
h  - hammer on           b  - Bend
p  - pull off            Suffixes for bend
t  - tap                 f  - full bend    h - half bend
ph - pinched harmonic    q  - quarter bend t - tap bend
                         p  - pre bend
*  - see comment         ^  - Hold bend    r release bend
x  - Stuccatto           ~  - vibrato bend
,  - slight palm mute    () - ghost note, sustained note
"  - tremolo note        <> - harmonic

Tuning E A D G B E

 Intro

 Guitar 1

[----------------------------------------------------|
[----------------------------------------------------|
[----------------------------------------------------|
[-----------------------------5----------9------9\7--|
[-5\4/5-2----------5----------3----------7------7\5--|
[-3\2/3-0----------3---------------------------------|
[Guitar 2
[         [---PM--]  [---PM--]  [---PM--]
[----------------------------------------------------|
[----------------------------------------------------|
[----------------------------------------------------|
[-----------------------------5----------9------9\7--|
[-5\4/5-2----------5----------3----------7------7\5--|
[-3\2/3-0-00000000-3-00000000---00000000-------------|


 Main Riff

  [----PM-----]   [----PM-----]
|---------------------------------------------|
|---------------------------------------------|
|---------------------------------------------|
|--------------9\7--------------9\7-12\11\9\7-|
|--------------7\5--------------7\5-10\9-\7\5-|
|-000000000000-----000000000000---------------| 

  [----PM-----]   [----PM-----]     [----PM-----]
|--------------------------------------------------------------|
|--------------------------------------------------------------|
|--------------------------------------------------------------|
|--------------9\7--------------9\7--------------9\7-12\11\9\7-|
|--------------7\5--------------7\5--------------7\5-10\9-\7\5-|
|-000000000000-----000000000000-----000000000000---------------|

  [----PM-----]   
|---------------------------------|
|---------------------------------|
|---------------------------------|
|--------------9\7-----------9/10-|
|--------------7\5-5-------5-7/8--|
|-000000000000-------5-6-7--------| 

      [----PM-----]   [----PM-----]
|-------------------------------------------------|
|-------------------------------------------------|
|-------------------------------------------------|
|-9\7--------------9\7--------------9\7-12\11\9\7-|
|-7\5--------------7\5--------------7\5-10\9-\7\5-|
|-----000000000000-----000000000000---------------|

[----PM-----]   [----PM-----]     [----PM-----]
|--------------------------------------------------------------|
|--------------------------------------------------------------|
|--------------------------------------------------------------|
|--------------9\7--------------9\7--------------9\7-12\11\9\7-|
|--------------7\5--------------7\5--------------7\5-10\9-\7\5-|
|-000000000000-----000000000000-----000000000000---------------|

  [----PM-----]   
|---------------------------------|
|---------------------------------|
|---------------------------------|
|--------------9\7-----------9/10-|
|--------------7\5-5-------5-7/8--|
|-000000000000-------5-6-7--------| 

 Chorus

 Guitar 1
  [PM]  [PM]  [PM]  [PM]  [PM]  [PM]  [PM] [PM]
[--------------------------------------------------------------|
[--------------------------------------------------------------|
[-----------------------------------------------7-----7-----7\-|
[-----9\----3-----5-----3-----9\----2-----3-----5-x-x-5-x-x-5\-|
[-----7\----2-----2-----2-----7\----2-----2--------------------|
[-0-0---0-0---0-0---0-0---0-0---0-0---0-0---0-0----------------|
[Guitar 2
[ [PM]  [PM]  [PM]  [PM]  [PM]  [PM]  [PM] [PM]            ph~~~
[--------------------------------------------------------------|
[-----------------------------------------------------------8--|
[-----------------------------------------------7-----7--------|
[-----9\----3-----5-----3-----9\----2-----3-----5-x-x-5-x-x----|
[-----7\----2-----2-----2-----7\----2-----2--------------------|
[-0-0---0-0---0-0---0-0---0-0---0-0---0-0---0-0----------------|

 Guitar 1
  [PM]  [PM]  [PM]  [PM]  [PM]  [PM]  [PM] [PM]
[-----------------------------------------------------------|
[-----------------------------------------------------------|
[-------------------------------------------------------0---|
[-----9\----3-----5-----3-----9\----2-----3-----4-\3----0---|
[-----7\----2-----2-----2-----7\----2-----2-----2-\1--------|
[-0-0---0-0---0-0---0-0---0-0---0-0---0-0---0-0------5------|
[Guitar 2
[ [PM]  [PM]  [PM]  [PM]  [PM]  [PM]  [PM] [PM]
[-----------------------------------------------------------|
[-----------------------------------------------------------|
[-----------------------------------------------------------|
[-----9\----3-----5-----3-----9\----2-----3-----4-\3--------|
[-----7\----2-----2-----2-----7\----2-----2-----2-\1-7-\5---|
[-0-0---0-0---0-0---0-0---0-0---0-0---0-0---0-0------5-\3---|

 Rpt above riffs
 Rpt Verse
 Rpt Chorus
 Rpt Verse

  [----PM-----]   
|------------------------------|
|------------------------------|
|------------------------------|
|--------------9\7-----------9-|
|--------------7\5-5-------5-7-|
|-000000000000-------5-6-7-----| 

 Bass fill

 Guitar 1
[-----|
[-----|
[-----|
[-7---|
[-5---|
[-----| 
[Guitar 2
[-----|
[-8---|
[-7---|
[-0---|
[-----|
[-----|

 Bass fill
 
 Backing for solo

  [-----------PM-----------]
|--------------------------------|
|--------------------------------|
|--------------------------------|
|--------------------------------|
|----------------------------8\6-|
|-33333333-33333333-33333333-6\4-| Rpt 4 X

  [-----------PM-----------]
|--------------------------------|
|--------------------------------|
|--------------------------------|
|----------------------------8\6-|
|-33333333-33333333-33333333-6\4-| 
|--------------------------------| Rpt 4 X

 Harmonised part(use vibrato throughout)

 Guitar 1
[--------------------------------------------------------------|
[--------------------------------------------------------------|
[-------------------/3-----------------------------------------|
[---------3-4----------6-4-3----1/4-\3---------4p3-0-1-4p3-0---|
[-6-----6-----2------------------------5-6---\---------------5-|
[--------------------------------------------------------------|
[Guitar 2
[--------------------------------------------------------------|
[----------------------------------------------2p0-----2p0-----|
[---------1-3-------/6-4\3-------/3--1-------------1-3-----1-3-|
[-4-----4-----1------------6---\-------3-4---\-----------------|
[--------------------------------------------------------------|
[--------------------------------------------------------------|


 Guitar 1
[----------------------------------------|
[----------------------------------------|
[-------------------/3-------------------|
[---------3-4----------6-4-3----1/4-\3---|
[-6-----6-----2------------------------5-|
[----------------------------------------|
[Guitar 2
[----------------------------------------|
[----------------------------------------|
[---------1-3-------/6-4\3-------/3--1---|
[-4-----4-----1------------6---\-------3-|
[----------------------------------------|
[----------------------------------------|

 [-PM-]  [-PM-] [-PM-] [-PM-] [-PM-] [-PM-] [-PM-] [-PM-]
|---------------------------------------------------------|
|---------------------------------------------------------|
|---------------------------------------------------------|
|-8888-8\6666-6\4444-4\3333-3/8888-8\6666-6\4444-4\3333-3-|
|-6666-6\4444-4\2222-2\1111-1/6666-6\4444-4\2222-2\1111-1-|
|---------------------------------------------------------|

 Guitar 1
[-------------------------------------------------------------------|
[-------------------------------------------------------------------|
[-------------------------------------------------------------------|
[-------------------------------------------------------------------|
[-2---------------------------(2)-----------------------------------|
[-0---------------------------(0)-----------------------------------|
[Guitar 2
[  ~~~~~~~~~~~~~~~~~~~~~~
[-------------------------------------------------------------------|
[-------------------------------------------------------------------|
[<9>----------------------------------------------------------------|
[-------------------------------------------------------------------|
[-------------------------------------------------------------------|
[-----------------------------0--trem dive--------pull up-----------|

 Rpt Verse
 Rpt Chorus
 Rpt Verse 2 X

      [---PM---]         [---PM---]
|-------------------------------------------------|
|-------------------------------------------------|
|-------------------------------------------------|
|-9\7-----------9/10\9\7-----------9/10\9-\7-/9-\-|
|-7\5-5-------5-7/8-\7\5-5-------5-7/8-\7-\5-/7-\-|
|-------5-6-7--------------5-6-7------------------|


END

comments
We did not receive enough feedback on this tab! Please rate:
print report bad tab
1 2 3 4 5
I want to post or [tab]
guest
You may want to rate the tab now too:
select rating
Please do not post tabs as comments. Select "correction" instead!