Oops, an error
Loading. Please wait.

Salattu Suru Tab

6,481 views 15 this week
no commentswrite comment
1 2 3 4 5
accurate
x 3
add to favorites
launch autoscroll
font size
0
reset
how to read this tab
guitar tuner
Autoscroll
slow
fast
+/-
esc
set tempo
stop
Help us to improve Ultimate-Guitar.com Take our survey!
×
Difficulty
intermediate
Intro: 
  G                 Em              G             Em
e --7~---7h10p7-----7--|-----7------7~--|-10-7----7--|-8--8-/10--8--7~------|
h --------------10-----|---8----8---8~--|------10----|-10-10/12--10-8~------|
G ---------------------|-9--------------|------------|----------------------|
D ---------------------|----------------|------------|----------------------|
A ---------------------|----------------|------------|----------------------|
E ---------------------|----------------|------------|----------------------|

       G                                   Em
Vaikka vuokses sain surun suuren vain, sen kestän 
e --------------------------------------------------10-7----7~-------7--(7)----|
h -------------------------------------------------------10--------8--(8)------|
G ---------------------------------------------------------------9-------------|
D -----------------------------------------------------------------------------|
A -----------------------------------------------------------------------------|
E -----------------------------------------------------------------------------|

     G                           Em
Mitä tunnen sen muita huomaamsta estän
e ----------------------------------------10-7----7~-------7------|
h ---------------------------------------------10--------8--------|
G -----------------------------------------------------9----------|
D ----------------------------------------------------------------|
A ----------------------------------------------------------------|
E ----------------------------------------------------------------|

      Am                D7             C7            G
Voiko näyttää mies tätä taakkaa surun, ei, jos yksin jäänen

      Am              D7           G         Gm  F#m  Em
Sydän vaikeroi, mutta vaiennan sen äänen
e -----------------------------------------------------------|
h -------------------------------------------11--10--8-------|
G -------------------------------------------12--11--9-------|
D -------------------------------------------12--11--9-------|
A -------------------------------------------10---9--7-------|
E -----------------------------------------------------------|

D7                   G                              D7
Suru sydämein, se on salaisuus,                      vain salaisuus
e --------------------------------3-5-5h7-7-5-3--------------------------|
h ------------------------------3---------------3------------------------|
G -----------------------------------------------------------------------|
D -----------------------------------------------------------------------|
A -----------------------------------------------------------------------|
E -----------------------------------------------------------------------|


       G                            Em
Kaikki haaveet haihtuvat yksi kerrallaan
e ----------------------8--8/-10-10-8--7----10-7----7~------7------------|
h ----------------------10-10/12-12-10-8---------10-------8--------------|
G ------------------------------------------------------9----------------|
D -----------------------------------------------------------------------|
A -----------------------------------------------------------------------|
E -----------------------------------------------------------------------|

       G                             Em
Niistä muistot himmeät vain nyt enää saan
e ---7~-----------------8--8/-10-10-8--7----10-7----7~------7------------|
h -8--------------------10-10/12-12-10-8---------10-------8--------------|
G ------------------------------------------------------9----------------|
D -----------------------------------------------------------------------|
A -----------------------------------------------------------------------|
E -----------------------------------------------------------------------|

      Am                D7             C7            G
Voiko näyttää mies tätä taakkaa surun, ei, jos yksin jäänen

      Am              D7           G             Em               G                Em
Sydän vaikeroi, mutta vaiennan sen äänen
e --------------------------------7~---7h10p7-----7--|-----7------7~--|--7h10p7----7-----|
h ------------------------------8-------------10-----|---8----8---8~--|---------10-------|
G ---------------------------------------------------|-9--------------|------------------|
D ---------------------------------------------------|----------------|------------------|
A ---------------------------------------------------|----------------|------------------|
E ---------------------------------------------------|----------------|------------------|

Soolo:
              G                                  Em       w/bar
e ---5/7-7--5-3-------|---3--5--5/7---5h7p5-3---------|---7\-/~-----|
h ---------------3--3-|-3----------------------3/5----|---8\-/~-----|
G --------------------|-------------------------------|-------------|
D --------------------|-------------------------------|-------------|
A --------------------|-------------------------------|-------------|
E --------------------|-------------------------------|-------------|
               G                                   Em                       !=Harm
e ---5/7-7--5--3-------|---3--5--5/7----5h7p5-3--------|--------12!--------|
h ---------------3--3--|-3-----------------------3/5---|-----12!-----------|
G ---------------------|-------------------------------|--12!--------------|
D ---------------------|-------------------------------|-------------------|
A ---------------------|-------------------------------|-------------------|
E ---------------------|-------------------------------|-------------------|
          Am                  D7            C7         G
e ------3-3h5-(5)--3-5-5-3--5-5/7-5---------|---3-5-5b-3~-----|
h --3/5------------------------------3------|-5---------------|
G ------------------------------------------|-----------------|
D ------------------------------------------|-----------------|
A ------------------------------------------|-----------------|
E ------------------------------------------|-----------------|
        Am             D7              G                        Gm  F#m Em
e --5-7-8-5-5~--|--5-7-8~--|--8-8-10-8-7------------|--7-7-7-7----------------|
h --------------|----------|-------------12!----12!-|--8-8-8-8--11--10--8-----|
G --------------|----------|----------------12!-12!-|-----------12--11--9-----|
D --------------|----------|------------------------|-----------12--11--9-----|
A --------------|----------|------------------------|-----------10---9--7-----|
E --------------|----------|------------------------|-------------------------|

D7                   G                              D7
Suru sydämein, se on salaisuus,                      vain salaisuus
e --------------------------------3-5-5h7-7-5-3-------------------------------|
h ------------------------------3---------------3-----------------------------|
G ----------------------------------------------------------------------------|
D ----------------------------------------------------------------------------|
A ----------------------------------------------------------------------------|
E ----------------------------------------------------------------------------|

       G                            Em
Kaikki haaveet haihtuvat yksi kerrallaan
e -----------------------------------7~-----7h10p7-----7--------7------|
h ---------------------------------8---------------10---------8--------|
G ----------------------------------------------------------9----------|
D ---------------------------------------------------------------------|
A ---------------------------------------------------------------------|
E ---------------------------------------------------------------------|

       G                             Em
Niistä muistot himmeät vain nyt enää saan
e ---7~-----------------8--8/-10-10-8--7----10-7----7~------7----------|
h -8--------------------10-10/12-12-10-8---------10-------8------------|
G ------------------------------------------------------9--------------|
D ---------------------------------------------------------------------|
A ---------------------------------------------------------------------|
E ---------------------------------------------------------------------|

      Am                D7             C7            G
Voiko näyttää mies tätä taakkaa surun, ei, jos yksin jäänen

      Am              D7           G              Em           G                Em
Sydän vaikeroi, mutta vaiennan sen äänen
e --------------------------------7~---7h10p7-----7--|-----7---7~--|--7h10p7----7-----|
h ------------------------------8-------------10-----|---8---8-----|---------10-------|
G ---------------------------------------------------|-9-----------|------------------|
D ---------------------------------------------------|-------------|------------------|
A ---------------------------------------------------|-------------|------------------|
E ---------------------------------------------------|-------------|------------------|
                       G             Em           G                Em                   G
e ------8--8/-10-10-8--7--|--10-7----7~-|-----7---7--|---7h10p7----7--|--8--8/-10-10-8--7---|
h ------10-10/12-12-10-8--|-------10----|---8---8----|----------10----|--10-10/12-12-10-8---|
G ------------------------|-------------|-9----------|----------------|---------------------|
D ------------------------|-------------|------------|----------------|---------------------|
A ------------------------|-------------|------------|----------------|---------------------|
E ------------------------|-------------|------------|----------------|---------------------|
               Em           G             Em                G
e --7h10p7-----7--|-----7---7~--|-10-7----7--|-8--8-/10--8--7~------|
h ---------10-----|---8---8-----|------10----|-10-10/12--10-8~------|
G ----------------|-9-----------|------------|----------------------|
D ----------------|-------------|------------|----------------------|
A ----------------|-------------|------------|----------------------|
E ----------------|-------------|------------|----------------------|
Suggest correction new What's this?
You can suggest a correction to this tab. Community and Mods will review your correction and vote to approve or reject it.
comments
We did not receive enough feedback on this tab! Please rate:
print report bad tab
1 2 3 4 5
guest
You may want to rate the tab now too:
select rating
Please do not post tabs as comments. Select "correction" instead!