Oops, an error
Loading. Please wait.

Husto Na Tab

297 views 3 this week
no commentswrite comment
1 2 3 4 5
please rate
add to favorites
launch autoscroll
font size
0
reset
how to read this tab
guitar tuner
Autoscroll
slow
fast
+/-
esc
set tempo
stop
Help us to improve Ultimate-Guitar.com Take our survey!
×
Author
Difficulty
intermediate
Song Title     : Husto na
Artist         : Aggressive Audio, Bisrock


INTRO:
       INTRO is drop d: pero play ko ng standard
       para ito sa mga standard players
      :Ito pala ay update tab pre, dami mali nung una
       ni review ko lng kasi kakapain namin..!! hehe..

      (do your own strum)
      (with light feed back in guitar, G string) Gtr2: Lead


Gtr1: Rythym

           D                         F#m
e|----------------------------------------------------|
B|----------------------------------------------------|
G|----------------------------------------------------|Repeat
D|---------7-------------------------4----------------|  2X
A|---------5-------------------------4----------------|
D|---------0-------------------------0----------------|


MAIN RIFF:

    D,b5           A5  B5  A5                       A5  B5  A5
              PM                                PM
e|--------------------------------------------------------------|
B|--------------------------------------------------------------|
G|--1----------------------------1------1---1-------------------|
D|--0---------0----7--/9---7-----0------0---0---0---7--/-9---7--|
A|--0---------0----7--/9---7-----0------0---0---0---7--/-9---7--|
D|-----------------5--/7---5------------------------5--/-7---5--|


    D,b5           A5  B5  A5                       A5  B5  A5
              PM                                PM
e|--------------------------------------------------------------|
B|--------------------------------------------------------------|
G|--1---1------------------------1------1---1-------------------|
D|--0---0-----0----7--/9---7-----0------0---0---0---7--/-9---7--|
A|--0---0-----0----7--/9---7-----0------0---0---0---7--/-9---7--|
D|-----------------5--/7---5------------------------5--/-7---5--|


VERSE:
      GTR2:

    NH..........................................................NH
e|-----------------------------------------------------------------|
B|-----------------------------------------------------------------|
G|-----------------------------------------------------------------|
D|--------------7-------7-------7-------7-------7---------------5--|
A|--5---5---5-------5-------5-------5-------5-------5-------5------|
E|------------------------------------------------------5----------|

D                      F#m
  Wala nay luha nga matagak
D                    F#m
  Sa mga adlaw nga ako naghilak
D                      F#m
  Kay gi gun-ob mo kining akong dughan
D                  F#m
  Sa dihang imo akong gibiya-an


PRE-CHORUS:

Bm   G           D
  Napakyas ang tanan
Bm           G           D          A
  Ang akong gugma nga dako pas kalibutan




CHORUS:

            Bm        G         D       A
  Basin nagtuo ka nga gwapa na kau ka
            Bm        G          D       A
  Basin nagtuo ka nga mura nakag artista
        Bm         G          D          A
  Ug gisayang nimo ang matuod kong gugma

  Husto na!

  (back to main riff then 2nd verse)



VERSE 2:

D                    F#m
  Mga maidlot nga tunok nga mitusok
D                  F#m
  Sa kasing kasing nako namasok
D                      F#m
  Ug ikaw lang gihapon ang ani-a sa akong dughan
D                   F#m
  Nganong imo man akong gibiya-an


REPEAT:
       PRE-CHORUS
       CHORUS
       MAIN RIFF
       then SOLO


SOLO:
     Do CHORDS  |---D---C#m---Bm---G---|


e|--------------------------------------------------------------|
B|--------------------------------------------------------------|
G|-------------------------7---------7-------9b^===========r==7-|
D|--------------7-----9---------9-------------------------------|
A|----7----9----------------------------------------------------|
E|--------------------------------------------------------------|

                         PM--------------------------------------|PM
e|---------------------------------------------------------------|
B|---------------------------------------------------------------|
G|--------------------------------------7---------7----9-/--11---|
D|---9-----7-----------------------7---------9-------------------|
A|-----------------------7----9----------------------------------|
E|---------------------------------------------------------------|


e|--------------------------------------------------|
B|---------------9---------------9~~~~~~~~~~--------|
G|==(11)---11---( )--(11)---11----------------------|
D|--------------------------------------------------|
A|--------------------------------------------------|
E|--------------------------------------------------|


e|-----------------------------------------------------|
B|-------------------10---12--------10---12/----15-----|
G|-----9---10---11------------------------------14-----|
D|-----------------------------------------------------|
A|-----------------------------------------------------|
E|-----------------------------------------------------|


e|------------------------------------------------------|
B|--12----15----17b^====================r17~~~~~~~~-----|
G|------------------------------------------------------|
D|------------------------------------------------------|
A|------------------------------------------------------|
E|------------------------------------------------------|

                                            PM   PM
e|-------------------------------------------------------------|
B|--15p--14----------------------------------------------------|
G|-------------14---12---11h==-12==p==11-----------------------|
D|------------------------------------------14---12----14b===r-|
A|-------------------------------------------------------------|
E|-------------------------------------------------------------|

                       slight palm
     PM    PM    PM    PM........
e|-----------------------------------|
B|-----------------------------------|
G|-----------------------------------|
D|---12----11------------------------|
A|---------------12----9~~~~~~~~~----|
E|-----------------------------------|

            PM         PM  PM  PM   PH
e|--------------------------------------------------------|
B|--------------------------------------------------------|
G|----------------7----7-------7----9~~~---7-------7------|
D|----------7--------------9-------------------9----------|
A|--7---9-------------------------------------------------|
E|--------------------------------------------------------|


e|---------------------------------------------------|
B|---------------------------------------------------|
G|---------------------------------------------------|
D|--9----7-------7-------------------------7h--9~~~--|
A|-----------9-------9~~~~---------7h--9-------------|
E|---------------------------------------------------|

e|---------------------------------------------------------|
B|-----------------------------------------------------12--|
G|---------------7----------7h--9---11---9---11/--14--(  )-|
D|-----------7-------9-------------------------------------|
A|---7h--9-------------------------------------------------|
E|---------------------------------------------------------|


e|----------------------------------------------|
B|--12--------15---14---12----------------------|
G|-(  )--14------------------14---11------------|
D|-------------------------------------14---12--|
A|----------------------------------------------|
E|----------------------------------------------|


e|--------------------------------------------------------------|
B|--------------------------------------------------------------|
G|--------------------------------------------------------------|
D|-12p--11---12p--11--------------------------------------------|
A|----------------------12h---14---12h---14~~~~~~~--------------|
E|--------------------------------------------------------------|


(In this PART.. Do Chords.. |---Em---D---C---G/B----|


e|--------------------------------------------------------------|
B|--------------------------------------------15=====17----15---|
G|/======12~~~~~~~~------12--------14/--(16)==( )---(  )---(  )-|
D|----------------------------14--------------------------------|
A|--------------------------------------------------------------|
E|--------------------------------------------------------------|


e|-------------------------------------10h12h14p12p10-12p10p9-|
B|-17/---20--20b=============r~~~---12------------------------|
G|------------------------------------------------------------|
D|------------------------------------------------------------|
A|------------------------------------------------------------|
E|------------------------------------------------------------|


e|------------------------------------------------------------|
B|-13p12p10-10h12h13p12p10-12p10p8--10b==================r8~~-|
G|------------------------------------------------------------|
D|------------------------------------------------------------|
A|------------------------------------------------------------|
E|------------------------------------------------------------|

                 PM   PM  PM
e|------------------------------------------------------------|
B|----------------------------10------------------------------|
G|--9----7-------7----7---7--------------------7----------7~~-|
D|-----------------------------------------7----------9-------|
A|---------------------------------7h--9----------------------|
E|------------------------------------------------------------|

                                                W.
e|------------------------------------------------------|
B|--------------8~~~~~~~~~~~~~~-----------\=====--------|
G|---------7--------------------------------------------|
D|----9-------------------------------------------------|
A|------------------------------------------------------|
E|------------------------------------------------------|


e|---------------------------------------------------------|
B|---15h17p15-15h17p15-15h17p15-15h17p15-15h17p15-15h17p15-|
G|---------------------------------------------------------|
D|---------------------------------------------------------|
A|---------------------------------------------------------|
E|---------------------------------------------------------|


e|-------------------------------------------------------|
B|-15h17p15-15h17p15-15h17p15-15h17p15-15h17p15-15h17p15-|
G|-------------------------------------------------------|
D|-------------------------------------------------------|
A|-------------------------------------------------------|
E|-------------------------------------------------------|


e|-------------------------------------------------------|
B|-15h17p15-15h17p15-15h17p15-15h17p15-15h17p15-15h17p15-|
G|-------------------------------------------------------|
D|-------------------------------------------------------|
A|-------------------------------------------------------|
E|-------------------------------------------------------|


e|-------------------------------------------------------|
B|-17h19p17-17h19p17-17h19p17-17h19p17-17h19p17-17h19p17-|
G|-------------------------------------------------------|
D|-------------------------------------------------------|
A|-------------------------------------------------------|
E|-------------------------------------------------------|


e|-------------------------------------------------------|
B|-17h19p17-17h19p17-19h20p19-19h20p19-19h20p19-19h20p19-|
G|-------------------------------------------------------|
D|-------------------------------------------------------|
A|-------------------------------------------------------|
E|-------------------------------------------------------|


e|-------------------------------------------------------|
B|-19h20p19-19h20p19-17h19p17-17h19p17-17h19p17-17h19p17-|
G|-------------------------------------------------------|
D|-------------------------------------------------------|
A|-------------------------------------------------------|
E|-------------------------------------------------------|


e|---------------------------------------------------------|
B|-17h19p17-15h17p15-15h17p15-15h17p15-15h17p15-15h17p15---|
G|---------------------------------------------------------|
D|---------------------------------------------------------|
A|---------------------------------------------------------|
E|---------------------------------------------------------|

  |-32nd------|
  |---3-------|(all tuplets)

e|-17p15p12-17p15p12-17p15p12-17p15p12-17p15p12-17p15p12-|
B|-------------------------------------------------------|
G|-------------------------------------------------------|
D|-------------------------------------------------------|
A|-------------------------------------------------------|
E|-------------------------------------------------------|


e|-17p15p12-17p15p12-17p15p12-17p15p12-17p15p12-17p15p12-|
B|-------------------------------------------------------|
G|-------------------------------------------------------|
D|-------------------------------------------------------|
A|-------------------------------------------------------|
E|-------------------------------------------------------|


e|-17p15p12-17p15p12-17p15p12-17p15p12-17p15p12-17p15p12-|
B|-------------------------------------------------------|
G|-------------------------------------------------------|
D|-------------------------------------------------------|
A|-------------------------------------------------------|
E|-------------------------------------------------------|

 |-32nd------------------------------|
e|-17p15p12-17p15g=========---\------|
B|-----------------------------------|
G|-----------------------------------|
D|-----------------------------------|
A|-----------------------------------|
E|-----------------------------------|


e|-/12====15g==14p12---------14---12-----------------|
B|---------------------15--------------15b========r--|
G|---------------------------------------------------|
D|---------------------------------------------------|
A|---------------------------------------------------|
E|---------------------------------------------------|


e|--------------------------------------------|
B|-15b===r------------------------------------|
G|----------15---14---12----------------------|
D|-------------------------16---14~~~~~~------|
A|--------------------------------------------|
E|--------------------------------------------|



INTERLUDE:


e|-----------------------------------------------------|
B|-----------------------------------------------------|
G|-----------------------------------------------------|Repeat
D|-----------------------------------------------------|  4x
A|--5----5--------4----5-----5----9--------7----7------|
E|-----------------------------------------------------|

REPEAT:
       PRE-CHORUS
       CHORUS
       MAIN RIFF as OUTRO:



Tablature Legend:

  h      -- hammer on
  p      -- pull off
  b      -- bend
  r      -- bend release
  ===    -- bend hold or maintain(note tied)
  ^      -- bend a little, or dec/increase the bend slightly
  w      -- Whole (Bend, Ring Etc....)
  /,\    -- slide (toward, forward)
  ~      -- let ring
  x      -- Muted string then pick it, Or Scratch
  PH     -- Pinch Harmonic
  TH     -- Tap Harmonic
  NH     -- Natural Harmonic
  PM     -- Palm Muted
  T      -- Tap
  Tr     -- Trill



                For any comments, suggestions, corrections, request
                love letter or even death threats
                just send me message on FaceBook..!!!!
                Hope my simple tab helps you...
=====================================================================
  Tabbed by   : Nazo Dela Reka
      Email   : nazo_dela_reka@yahoo.com
                Calinan Davao City, Phillipines...
                add me in Facebook..!! hehe... acheche..!!!
=====================================================================
Suggest correction
Give kudos to tab author, rate the tab!
1 2 3 4 5
comments
print report bad tab
guest
You may want to rate the tab now too:
select rating
Wanna post a correction for this tab? Suggest correction