Oops, an error
Loading. Please wait.

Lingin Tab

version 1
version 1

Whole song

2,328 views 3 this week
no commentswrite comment
1 2 3 4 5
please rate
add to favorites
launch autoscroll
font size
0
reset
how to read this tab
guitar tuner
Autoscroll
slow
fast
+/-
esc
set tempo
stop
Help us to improve Ultimate-Guitar.com Take our survey!
×
Band/Artist: Aggressive Audio
Song: Lingin

Intro:
e|---------7--5----------------------------------------9----------------------------|
B|-----5--------5---------9---10---12--10--------10------12------------7---8---7----|
G|---6---6--------6-----9---9----9------------11----11------11-------7---7---7---7--|
D|-7------------------9--------------------11-----------------11---7----------------|
A|----------------------------------------------------------------------------------|
E|----------------------------------------------------------------------------------|
   A                  E                    F#m                   D

e|---------5--5---------------------------------------9-----------------------------|
B|-----5--------5--------9---10---12--10--------10------12---------7---8--7---------|
G|---6---6--------6----9---9----9------------11----11------11----7---7--------------|
D|-7-----------------9--------------------11-------------------7--------------------|
A|----------------------------------------------------------------------------------|
E|----------------------------------------------------------------------------------|
   A                 E                     F#m                 D

Verse 1:
e|------------7--5----------------------------------------------9-----------------------------|
B|--------5--------5-------------9----10----12--10--------10-------12--------------7---8--7---|
G|-----6----6---------6-------9----9-----9-------------11-----11-------11--------7---7------7-|
D|--7-----------------------9-----------------------11-------------------------7--------------|
A|--------------------------------------------------------------------------------------------|
E|--------------------------------------------------------------------------------------------|
   A                        E                       F#m                        D
Ang among balay (lingin) Ang among atop (lingin) Ang among bintana (lingin) Ang among 
pultahan (lingin)

e|-----------7--5-------------------------------------------------9---------------------------|
B|-------5---------5-------------9----10---12--10------------10------12----------7--------9---|
G|----6----6---------6--------9----9-----9----------------11----11------11-----7---7----9---9-|
D|-7------------------------9---------------------------11-------------------7--------9-------|
A|--------------------------------------------------------------------------------------------|
E|--------------------------------------------------------------------------------------------|
   A                         E                           F#m                 D      E
Ang among kwarto (lingin) Ang among bongbong (lingin) Ang among hagdanan   ohhhhoooo


Refrain:
e|--------------7--5--------------------------------9--------------------------|
B|----------5--------5-------9---10--12--------10------12----------7---7---7---|
G|--------6---6------------9---9------------11----11------11-----7---7---7---7-|
D|------7----------------9---------------11--------------------7---------------|
A|-----------------------------------------------------------------------------|
E|-----------------------------------------------------------------------------|
        A                E               F#m                  D
Pwerting lingina ahh hah hah...    hah hah hah...      ahh hahh


Verse 2:
e|------------7--5----------------------------------------------9-----------------------------|
B|--------5--------5-------------9----10----12--10--------10-------12--------------7---8--7---|
G|-----6----6---------6-------9----9-----9-------------11-----11-------11--------7---7------7-|
D|--7-----------------------9-----------------------11-------------------------7--------------|
A|--------------------------------------------------------------------------------------------|
E|--------------------------------------------------------------------------------------------|
   A                        E                       F#m                        D
Ang among lamisa (lingin) Ang among bangku (lingin) Ang among aparador (lingin) Ang 
among lantay (lingin)

e|-----------7--5-------------------------------------------------9---------------------------|
B|-------5---------5-------------9----10---12--10------------10------12----------7--------9---|
G|----6----6---------6--------9----9-----9----------------11----11------11-----7---7----9---9-|
D|-7------------------------9---------------------------11-------------------7--------9-------|
A|--------------------------------------------------------------------------------------------|
E|--------------------------------------------------------------------------------------------|
   A                         E                          F#m                 D      E
Ang among kabinit (lingin) Ang among takuri (lingin) Ang among kutsilyo   ohhhhoooo

Refrain: (Do your own strumming)
e|------0--------------------------------2--------------------2------------|
B|------2----------------0---------------2--------------------3------------|
G|------2----------------1---------------2--------------------2------------|
D|------2----------------2---------------4--------------------0------------|
A|------0----------------2---------------4---------------------------------|
E|-----------------------0---------------2---------------------------------|
        A                E               F#m                  D
Pwerting lingina ahh hah hah...    hah hah hah...     ahh hahh

Chorus:
e|---2---------------------------------------------2-------------------|
B|---3-----------0----------2--------1-----------2---2-----------------|
G|---2-----------1------------2--------2-------2-------2---------------|
D|---0-----------2--------2--------2---------------------4-------------|
A|---------------2------0--------2----------4--------------------------|
E|---------------0------------------------2----------------------------|
     D           E      A        E       F#m
       Ang among chorus lingin   lang   gihapon

e|---2----------------------------------------------------2------------|
B|---3-------------0---------------2--------1-----------2---2----------|
G|---2-------------1-----------------2--------2-------2-------2--------|
D|---0-------------2--------------2--------2--------------------4------|
A|-----------------2------------0--------2---------4-------------------|
E|-----------------0-----------------------------2---------------------|
     D             E            A         E      F#m
      Kay wala nay laing lyrics lingin   lang   gihapon

e|---------------2---2----2--------------0~---------------------------|
B|-------------------3----3--3-------0---0~---------------------------|
G|-------------2---2---2--2--2-----1-----1~---------------------------|
D|-----------0-------------------2-------2~---------------------------|
A|---------------------------------------2~---------------------------|
E|-----------------------------0--------------------------------------|
             D                 E
      Kay  ang  atong     kinabuhi            lingin

Back to intro:
e|---------7--5---------------------------------------9---------------------------|
B|-----5--------5--------9---10---12--10--------10------12---------7---8--7-------|
G|---6---6-------------9---9----9------------11----11------11----7---7------------|
D|-7-----------------9--------------------11-------------------7------------------|
A|--------------------------------------------------------------------------------|
E|--------------------------------------------------------------------------------|
   A                 E                     F#m                 D


Verse 3:
e|------------7--5----------------------------------------------9-----------------------------|
B|--------5--------5-------------9----10---12--10---------10-------12--------------7---8--7---|
G|-----6----6-----------------9----9-------------------11-----11-------11--------7---7------7-|
D|--7-----------------------9-----------------------11-------------------------7--------------|
A|--------------------------------------------------------------------------------------------|
E|--------------------------------------------------------------------------------------------|
   A                        E                       F#m                        D
Ang akong ulo (lingin) Ang akong mata (lingin) Ang akong ilong (lingin) Ang akong baba (lingin)

e|-----------7--5-------------------------------------------------9---------------------------|
B|-------5---------5-------------9----10---12--10------------10------12----------7-------9----|
G|----6----6------------------9----9----------------------11----11------11------7--7---9---9--|
D|-7------------------------9---------------------------11----------------11---7------9-------|
A|--------------------------------------------------------------------------------------------|
E|--------------------------------------------------------------------------------------------|
   A                         E                           F#m                 D      E
Ang akong dughan (lingin) Ang akong pusod (lingin) Ang akong periko    ohhhhoooo


Refrain: (Do your own strumming)
e|------0--------------------------------2--------------------2------------|
B|------2----------------0---------------2--------------------3------------|
G|------2----------------1---------------2--------------------2------------|
D|------2----------------2---------------4--------------------0------------|
A|------0----------------2---------------4---------------------------------|
E|-----------------------0---------------2---------------------------------|
        A                E               F#m                  D
Pwerting lingina ahh hah hah...    ahh hah hah...     ahh hahh

Adlib: A-E-F#m-D-;

Guitar solo:
e|-----------------------------------------------------------------------------|
B|-----------------------------------------------------------------------------|
G|-----------------------------------------------------------------------------|
D|-------7---9/11-9-------9------7---------7-----------------7-9-7---7---------|
A|---5/7--------------9h11--11-9---9---7h9---9-7-9-5---5-7-9-------9-----------|
E|-----------------------------------------------------------------------------|

e|-----------------------------------------------------------------------------|
B|-----------------------------------------------------------------------------|
G|-----------------------------------------------------------------------------|
D|---9/11-9--7h9-7------7-----7------------------------------------------------|
A|----------------9--7h9--9-7---9--7-9-7-5-------------------------------------|
E|-----------------------------------------------------------------------------|

Chorus:
e|-----------------------------------------------------------------------------|
B|-----------------------------------------------------------------------------|
G|---7-----------9---------------9---------------------------------------------|
D|---7-----------9------7--------9--------4------------------------------------|
A|---5-----------7------7--------7--------4------------------------------------|
E|----------------------5-----------------2------------------------------------|
     D5          E5     A5       E5       F5
       Ang among chorus lingin   lang   gihapon

e|-----------------------------------------------------------------------------|
B|-----------------------------------------------------------------------------|
G|---7-------------9----------------------9------------------------------------|
D|---7-------------9------------7---------9------4-----------------------------|
A|---5-------------7------------7---------7------4-----------------------------|
E|------------------------------5----------------2-----------------------------|
     D5            E5           A5        E5     F#m
      Kay wala nay laing lyrics lingin   lang   gihapon

e|-----------------------------------------------------------------------------|
B|-----------------------------------------------------------------------------|
G|-----------7-----------------9-----------------------------------------------|
D|-----------7-----------------9-----------------------------------------------|
A|-----------5-----------------7-----------------------------------------------|
E|-----------------------------------------------------------------------------|
             D5                E5
      Kay  ang  atong     kinabuhi

e|--------------------------------2-----------------2---3---2----------0~------|
B|---------2--------0-----------2---2-----------------3---3--------0---0~------|
G|-----------2--------1-------2-------2-----------2--------------1-----1~------|
D|--------------------------------------4-------0--------------2-------2~------|
A|-------0-------2----------4------------------------------------------2~------|
E|------------------------2----------------------------------0-----------------|
         A      E         F#m                   D            E
Lingin                                   kay ang atong   kinabuhi          lingin

e|----------------------------------2---------2---3---2------------0~-----------|
B|-------2----------0---------------2-----------3---3--3--------0--0~-----------|
G|---------2----------1-------------2-------2-----------------1----1~-----------|
D|-----2----------2--------------4--------0-----------------2------2~-----------|
A|---0----------2--------------4-----------------------------------2~-----------|
E|---------------------------2---------------------------0---------0~-----------|
     A          E            F#m          D             E                 (A)
                                    kay ang atong   kinabuhi          lingin
comments
We did not receive enough feedback on this tab! Please rate:
print report bad tab
1 2 3 4 5
I want to post or [tab]
guest
You may want to rate the tab now too:
select rating
Please do not post tabs as comments. Select "correction" instead!