Oops, an error
Loading. Please wait.

The Sixth House Tab

144 views 1 this week
no commentswrite comment
1 2 3 4 5
please rate
add to favorites
launch autoscroll
font size
0
reset
how to read this tab
guitar tuner
Autoscroll
slow
fast
+/-
esc
set tempo
stop
Help us to improve Ultimate-Guitar.com Take our survey!
×
Author
Difficulty
Tuning
advanced
D G C F A D
                      Aghast

                " The Sixth House "


Tuning - ( D Standard )


p - pull off    h - hammer on

x - palm mute


|-------------------------------------------------------------------------|
|-------------------------------------------------------------------------|
|-------------------------------------------------------------------------|
|-4-x-5-------------------------------------4-x-5-3-----------------------|
|--------------4p3----------4p3----------------------------4p3------------|
|-2-x-3--2-3-5-----5--2-3-5-----5--2-3-5-1--2-x-3-1--2-3-5-----5----------|
         x x x        x x x        x x x x           x x x                 


|--------------------||---------------------------------------------------|
|--------------------||---------------------------------------------------|
|--------------------||---------------------------------------------------|
|--------------4-x-5-||-----4-----4-----7-----7---7-----4-----4-----7-----|
|-------4p3----------||---3-----3-----5-----5---------3-----3-----5-------|
|-2-3-5-----5--2-x-3-||-2-----2-----3-----3-----3---2-----2-----3---------|
  x x x                 x x   x x   x x   x x   x   x x   x x   x x       


|--------------------------||-------||------------------------------------|
|--------------------------||-------||------------------------------------|
|--------------------------||-------||------------------------------------|
|-----7---7--7-----4-----7-||-4-x-5-||------------------------------------|
|---5------------3-----5---||-------||-----7---9---10---12---10---9h10p9-7|
|-3-----3--3---2-----3-----||-2-x-3-||-0-0---0---0----0----0----0---------|
  x x   x  x   x x   x x               x x   x   x    x    x    x          


|----------------------------------||-------|--------|---------||---------|
|----------------------------------||-------|--------|---------||---------|
|----------------------------------||-------|--------|---------||---------|
|----------------------------------||-4-5-3-|-4-5--3-|-4-5---3-||---------|
|-2---7---9---10---15---14---12h14-||-3-4-2-|-3-4--2-|-3-4---2-||---------|
|-0-0---0---0----0----0----0-------||-2-3-1-|-2-3--1-|-2-3---1-||-0000----|
    x   x   x    x    x    x                                      xxxx


|-------------------------------------------------------------------------|
|-------------------------------------------------------------------------|
|-------------------------------------------------------------------------|
|-------------------------------------------------------------------------|
|-------------------------------------------------------------------------|
|-0000--0000--0000--0000--0000--0000--0-0-0-0-0-0-0-0-0-0--0000--0000-----|
  xxxx  xxxx  xxxx  xxxx  xxxx  xxxx  x x x x x x x x x x  xxxx  xxxx     


|-------------------------------------------------------------------------|
|-------------------------------------------------------------------------|
|-------------------------------------------------------------------------|
|-------------------------------------------------------------------------|
|-------------------------------------------------------------------------|
|-0000--0000--0000--0-0-0-0-0-0-0-0-0-0--0000--0000--0000--0000--0000-----|
  xxxx  xxxx  xxxx  x x x x x x x x x x  xxxx  xxxx  xxxx  xxxx  xxxx     


|-------------------------------------------------------------------------|
|-------------------------------------------------------------------------|
|-------------------------------------------------------------------------|
|-------------------------------------------------------------------------|
|-------------------------------------------------------------------------|
|-0-0-0-0-0-0-0-0-0-0--0000--0000--0000--0000--0000--12-12-12-12-12-12-12-|
  x x x x x x x x x x  xxxx  xxxx  xxxx  xxxx  xxxx  x  x  x  x  x  x  x   


|-------------------------------------------------------------------------|
|-------------------------------------------------------------------------|
|-------------------------------------------------------------------------|
|----------14141414--2222----------14141414--2222-------------------------|
|-------------------------------------------------------------------------|
|-12-12-12----------------12121212----------------12121212--12-12-12-12-12|
  x  x  x  x x x x   xxxx x x x x  x x x x   xxxx x x x x   x  x  x  x  x


|-------------------------------------------------------------------------|
|-------------------------------------------------------------------------|
|-------------------------------------------------------------------------|
|-------------------------------------------------------------------------|
|-------------------------------------------------------------------------|
|-12-12-12-12-12--0000-0000-0000-0000-0000--0-0-0-0-0-0-0-0-0-0--0000-----|
  x  x  x  x  x   xxxx xxxx xxxx xxxx xxxx  x x x x x x x x x x  xxxx

|-------------------------------------------------------------------------|
|-------------------------------------------------------------------------|
|-------------------------------------------------------------------------|
|-------------------------------------------------------------------------|
|-------------------------------------------------------------------------|
|--0000--0000--0000--0000--0-0-0-0-0-0-0-0-0-0--0000--0000--0000--0000----|
   xxxx  xxxx  xxxx  xxxx  x x x x x x x x x x  xxxx  xxxx  xxxx  xxxx    


|-------------------------------------------------------------------------|
|-------------------------------------------------------------------------|
|-------------------------------------------------------------------------|
|-------------------------------------------------------------------------|
|-------------------------------------------------------------------------|
|--0000--0-0-0-0-0-0-0-0-0-0--0000--0000--0000--0000--0000--0-0-0-0--0000-|
   xxxx  x x x x x x x x x x  xxxx  xxxx  xxxx  xxxx  xxxx  x x x x  xxxx


|---------------------------||--------------------------------------------|
|---------------------------||--------------------------------------------|
|---------------------------||--------------------------------------------|
|---------------------------||-----4-----4-----7-----7---7-----4-----4----|
|---------------------------||---3-----3-----5-----5---------3-----3------|
|--0000--0000--0-0-0-0-0-0--||-2-----2-----3-----3-----3---2-----2--------|
   xxxx  xxxx  x x x x x x     x x   x x   x x   x x   x   x x   x x


|-------------------------------------------------------------------------|
|-------------------------------------------------------------------------|
|-------------------------------------------------------------------------|
|-----7-----7---7---7-----4-----7-----4-----4-----7-----7---7-----4-----4-|
|---5-----5-------------3-----5-----3-----3-----5-----5---------3-----3---|
|-3-----3-----3---3---2-----3-----2-----2-----3-----3-----3---2-----2-----|
  x x   x x   x   x   x x   x x   x x   x x   x x   x x   x   x x   x x


|---------------------------------||-------||-----------------------------|
|---------------------------------||-------||-----------------------------|
|---------------------------------||-------||-----------------------------|
|-----7-----7---7---7-----4-----7-||-4-x-5-||-----------------------------|
|---5-----5-------------3-----5---||-------||-----------------------------|
|-3-----3-----3---3---2-----3-----||-2-x-3-||--000-2h3h5--000-3h5h6--000--|
  x x   x x   x   x   x x   x x                xxx        xxx        xxx


|-------------------------------------------------------------------------|
|-------------------------------------------------------------------------|
|-------------------------------------------------------------------------|
|-------------------------------------------------------------------------|
|-------------------------------------------------------------------------|
|-2h3h5--000-0h1h2--3333300000000666665555522222222--000-2h3h5--000-3h5h6-|
         xxx        xxxxxxxxxxxxxxxxxxxxxxxxxxxxxxx  xxx        xxx       


|-------------------------------------------------------------------------|
|-------------------------------------------------------------------------|
|-------------------------------------------------------------------------|
|-------------------------------------------------------------------------|
|-------------------------------------------------------------------------|
|-000-2h3h5--000-0h1h2--3333300000000666665555522222222--000-2h3h5--000---|
  xxx        xxx                                         xxx        xxx


|-------------------------------------------------------------------------|
|-------------------------------------------------------------------------|
|-------------------------------------------------------------------------|
|-------------------------------------------------------------------------|
|-------------------------------------------------------------------------|
|-3h5h6--000-2h3h5--000-0h1h2--000-2h3h5--000-3h5h6--0h5h6-0h3h4-0h2h3----|
         xxx        xxx        xxx        xxx                              


|-------------------------------------------------------------------------|
|-------------------------------------------------------------------------|
|-------------------------------------------------------------------------|
|-------------------------------------------------------------------------|
|-------------------------------------------------------------------------|
|-0h1h2--000-2h3h5--000-3h5h6--000-2h3h5--000-0h1h2--333330000000066666555|
         xxx        xxx        xxx        xxx        xxxxxxxxxxxxxxxxxxxxx


|-------------------------------------------------------------------------|
|-------------------------------------------------------------------------|
|-------------------------------------------------------------------------|
|-------------------------------------------------------------------------|
|-------------------------------------------------------------------------|
|5522222222--000-2h3h5--000-3h5h6--000-2h3h5--000-0h1h2--33333000000005555|
 xxxxxxxxxx  xxx        xxx        xxx        xxx                          


|----------||-------||----------------------------------------------------|
|----------||-------||----------------------------------------------------|
|----------||-------||----------------------------------------------------|
|----------||-4-x-5-||------------------------------------4-x-5--3--------|
|----------||-------||-------4p3----------4p3-----------------------------|
|522222222-||-2-x-3-||-2-3-5-----5--2-3-5-----5--2-3-5-1--2-x-3--1--2-3-5-|
                       x x x        x x x        x x x x            x x x 


|----------------------------------||
|----------------------------------||
|----------------------------------||
|----------------------------------||
|-4p3----------4p3----------4p3----||
|-----5--2-3-5-----5--2-3-5-----5--||
         x x x        x x x        

Suggest correction
Give kudos to tab author, rate the tab!
1 2 3 4 5
comments
print report bad tab
guest
You may want to rate the tab now too:
select rating
Wanna post a correction for this tab? Suggest correction