Oops, an error
Loading. Please wait.

Karvan - Mtv Unplugged Acoustic chords

by Agnee
112 views 1 this week
no commentswrite comment
1 2 3 4 5
3 more votes to show rating
add to favorites
×
Save as Personal and add changes to this tab that will be seen only by you. Learn more ›
×
You can save this tab as Personal to edit and correct it or add notes. All changes will be seen only by you. Learn more »
launch autoscroll
font size
0
reset
transpose
0
reset
display chords
guitar tuner
edit
Autoscroll
slow
fast
+/-
esc
set tempo
stop
Author
Difficulty
About this tab version
Chords AND Tabs, both included for easy to read intro, instrumental and taal/bol parts of the song. Was this info helpful? Yes No
Strumming
There is no strumming pattern for this song yet. and get +5 IQ
Ignore N.C. It is placed for avoiding Automagic flags only. (N.C. = No Chords)
------------------------------------------------------------------------------------------------------------
[Intro]

E G E A

E G E A  A    A      A
ga ma pa ni, pa ni sa, ni, sa ma sa ga, sa ni pa ma ga sa...


       [Repeat until the line below]


E G E A  A   A    A      A
pa pa, sa ni pa ma ga sa ma, ma ma, sa ni pa ma ga sa ga....

[Notes]

E|--------------------|
B|--------------------|
G|--------------------|
D|--------5-----7--7--|
A|--5--7-----7--------|
E|--------------------|
[Repeat 4x]


E|------------------------------------|
B|------------------------------------|
G|------------------7---6-------------|
D|------5---5-7-5-7---7---7-5---------|
A|4-5-7---7-------------------7-5-4-0-|
E|------------------------------------|
[Repeat 3x]

E|--------------------|
B|--------------------|
G|--------------------|
D|--------5-----7--7--|
A|--5--7-----7--------|
E|--------------------|

N.C.
B|------------------------------------|

B ------------------------------------|
G|------------------7---6-------------|
D|------5---5-7-5-7---7---7-5---------|
A|4-5-7---7-------------------7-5-4-0-|
E|------------------------------------|
ga ma pa ni, pa ni sa, ni, sa ma sa ga, sa ni pa ma ga sa...
N.C.
[Repeat 3x]

E|------------------------------------------------------|
B|------------------------------------------------------|
G|------------------------------------------------------|
D|--------7--5---------------------7--5-----------------|
A|--7--7--------7--5--4--0---5--5--------7--5--4--0-----|
E|------------------------------------------------------|
pa pa, sa ni pa ma ga sa ma, ma ma, sa ni pa ma ga sa

E|------------------------------------|
B|------------------------------------|
G|------------------7---6-------------|
D|------5---5-7-5-7---7---7-5---------|
A|4-5-7---7-------------------7-5-4-0-|
E|------------------------------------|
ga ma pa ni, pa ni sa, ni, sa ma sa ga, sa ni pa ma ga sa...
N.C.
[Repeat 3x]

E|------------------------------------------------------|
B|------------------------------------------------------|
G|------------------------------------------------------|
D|--------7--5---------------------7--5-----------------|
A|--7--7--------7--5--4--0---5--5--------7--5--4--0--4--|
E|------------------------------------------------------|
pa pa, sa ni pa ma ga sa ma, ma ma, sa ni pa ma ga sa ga....

E|----------------------------------------------------------------------|
B|----------------------------------------------------------------------|
G|------------------------------------------------------------------6---|
D|--------7--5---------------------7--5-----------------7-5-------7-----|
A|--4--0--------7--5--4--0---5--5--------7--5--4--0-5-5-----7-5-4-------|
E|----------------------------------------------------------------------|
ga sa, sa ni pa ma ga sa ma, ma ma, sa ni pa ma ga sa, ma ma, sa ni pa ma ga sa ga..

E|----------------------------------------------------------------------|
B|----------------------------------------------------------------------|
G|------------------------------------------------------------------6---|
D|--------7--5---------------------7--5---------------------------7-----|
A|--4--0--------7--5--4--0---5--5--------7--5--4--0-5-5-0-4-7-5-4-------|
E|----------------------------------------------------------------------|
ga sa, sa ni pa ma ga sa ma, ma ma, sa ni pa ma ga sa, ma ma, sa ga pa ma ga sa ga..

N.C.

A F#m F A
Repeat until lyrics starts

A         F#m
 
Chal Pade, Rah Pe
F         G    A
Dhoondte Rah Ko
A      F#m     F       G      A
Raat Ka Karvan Dhoondhta Subah Ko
G
Kal Ka Yeh Armaan
G
Bhooli Daastaan
G             E
De Rahi Hai Tujhko Sadaa
A         F#m      F       G    A
Chal Pade, Rah Pe, Dhoondhte Rah Ko

A         F#m      F       G    A
Raat Ka Karvan Dhoondhta Subah Ko
F                                 G                              A
Takita Dhim, Kita Dhim Kita Dhim, Ta Dhim, Ta Dhim Ta Dhim Ta Dhim, Dhaaa...
F                                 G                              A
Takita Dhim, Kita Dhim Kita Dhim, Ta Dhim, Ta Dhim Ta Dhim Ta Dhim, Dhaaa...
F                                  G
Takita Dhim, Kita Dhim Kita Dhim, Ta Dhim, Ta Dhim Ta Dhim Ta Dhim
F                                  G
Takita Dhim, Kita Dhim Kita Dhim, Dhim Dhim, Ta Dhim Ta Dhim Ta Dhim,
F
Ta Thha Ta Thaa, Ta Dhim Ta Dhim Ta Dhim,
G                              A
Ta Thha Ta Dhim Ta Dhim Ta Dhim Dhaaa...

G                A
Manzilon Ke Sapne Liye
G                A
Aah Aansoo Peeche Chod Ke
F
Door Se Suni
G
Sada Yaar Ki
F
Phir Jawaan Hui
G
Yaad Pyaar Ki
G                E
Kadmon Mein Par Se Lage

A         F#m
Chal Pade, Rah Pe
F         G    A
Dhoondte Rah Ko
A      F#m     F        G     A
Raat Ka Karvan Dhoondhta Subah Ko

Dm               F
Armaan Hue Phir Jawaan
Dm               F
Yaadon Ki Parchhaiyan
Dm               A
Sapnon Ki Baatein Karne Lage
Dm               A
Halke Se Kaanon Mein Mere
G               A
Saahil Pe Jo Lehren Uthe
G               E
The Se Gaye tere Liye


A         F#m      F       G    A
Chal Pade, Rah Pe, Dhoondhte Rah Ko
A         F#m      F       G    A
Raat Ka Karvan Dhoondhta Subah Ko
F       G    A
Dhoondhta Subah Ko

F             G    A
Dhoondhta..... Subah Ko

            
            
Suggest correction
Creating personal tab
Creating personal tab
You can edit any tab online and save it as your Personal.

You can edit, replace or remove any tab part or add personal notes – all changes will be seen only by you.

Personal tabs can be accessed anytime from any device, even offline.
Learn more »
Give kudos to tab author, rate the tab!
1 2 3 4 5
comments
print report bad tab
guest
You may want to rate the tab now too:
select rating
Wanna post a correction for this tab? Suggest correction