Oops, an error
Loading. Please wait.

Mary chords

106 views 6 this week
no commentswrite comment
1 2 3 4 5
1 last vote to show rating
add to favorites
×
Save as Personal and add changes to this tab that will be seen only by you. Learn more ›
×
You can save this tab as Personal to edit and correct it or add notes. All changes will be seen only by you. Learn more »
launch autoscroll
font size
0
reset
transpose
0
reset
simplify chords
display chords
guitar tuner
edit
Autoscroll
slow
fast
+/-
esc
set tempo
stop
Strumming
There is no strumming pattern for this song yet. and get +5 IQ
Agnes Obel
"Mary"
Citizen of Glass (2016)

[Intro]
Gm Dm Fm Cm (2x)

[Verse]
Gm     Dm      Fm      Cm      Gm   Dm Fm Cm
Heaven hid her face as we fell down
Gm      Dm     Fm     Cm       Gm Dm Fm Cm
Age old habits echoed in the ground
Gm      Dm       Fm        Cm       Gm Dm Fm Cm
One old sing and one would hold me down
Gm          Dm    Fm   Cm       Gm Dm Fm Cm 
They might listen if I make no sound

[Chorus]
Note: play this one octave below the previous chords.

Gm   Dm       Fm
Oh I know this
Cm      Gm          Dm
From my high school heart
     Fm         Cm  Gm
That nothing is over
     Dm    Fm        Cm
From a touch it will begin
Gm   Dm     Fm  Cm
Wide in the sky

[Verse]
Gm    Dm         Fm     Cm       Gm Dm Fm Cm 
In my house the silence rang so loud
Gm     Dm       Fm          Cm      Gm Dm Fm Cm
Under doorways, through the hallway down
Gm      Dm       Fm    Cm      Gm  Dm Fm Cm 
Waiting for the secret to grow out
Gm         Dm      Fm     Cm    Gm Dm Fm Cm
Oh what we do when no one is around

[Break]
Note: all notes are 8ths; tempo is 3/4.
 
     Cm
e||--11------10------10------|--11------10------10------|
B||--------------------------|--------------------------|
G||------12------12------12--|------12------12------12--|
D||--------------------------|--------------------------|
A||--------------------------|--------------------------|
E||--------------------------|--------------------------|
 
e|--11----------------------|--------------------------||
B|------11--10------10------|--10------10------10------||
G|--------------12------12--|------12------12------12--||
D|--------------------------|--------------------------|| 2x
A|--------------------------|--------------------------||
E|--------------------------|--------------------------||

[Chorus]
Gm   Dm       Fm
Oh I know this
Cm      Gm          Dm
From my high school heart
     Fm         Cm  Gm
That nothing is over
     Dm    Fm        Cm
From a touch it will begin
Gm   Dm     Fm  
Wide in the sky

[Break]
      Cm
e||--11------10------10------|--11------10------10------|
B||--------------------------|--------------------------|
G||------12------12------12--|------12------12------12--|
D||--------------------------|--------------------------|
A||--------------------------|--------------------------|
E||--------------------------|--------------------------|
 
e|--11----------------------|--------------------------||
B|------11--10------10------|--10------10------10------||
G|--------------12------12--|------12------12------12--||
D|--------------------------|--------------------------|| 2x
A|--------------------------|--------------------------||
E|--------------------------|--------------------------||

[Bridge]
Gm             F        F9  Cm
In the dark I hear you sing
Gm                F           F9  Cm
Fingers move and chords they ring
Gm             F      F9   Cm
Be the witness of my shame
Gm              F      F9  Cm
Swaying in the summer rain
Gm                F         F9  Cm
Feathers falling from your wing
Gm             F        F9  Cm
In the dark I hear you sing

            
            
Suggest correction
Creating personal tab
Creating personal tab
You can edit any tab online and save it as your Personal.

You can edit, replace or remove any tab part or add personal notes – all changes will be seen only by you.

Personal tabs can be accessed anytime from any device, even offline.
Learn more »
Give kudos to tab author, rate the tab!
1 2 3 4 5
comments
print report bad tab
guest
You may want to rate the tab now too:
select rating
Wanna post a correction for this tab? Suggest correction