Oops, an error
Loading. Please wait.

Words Are Dead chords

106 views 15 this week
no commentswrite comment
1 2 3 4 5
3 more votes to show rating
add to favorites
×
Save as Personal and add changes to this tab that will be seen only by you. Learn more ›
×
You can save this tab as Personal to edit and correct it or add notes. All changes will be seen only by you. Learn more »
launch autoscroll
font size
0
reset
transpose
0
reset
display chords
guitar tuner
edit
Autoscroll
slow
fast
+/-
esc
set tempo
stop
Strumming
There is no strumming pattern for this song yet. and get +5 IQ
[Intro]

e|-------------|------------|------------|------------|------------|------------|------------|   х2
B|----3-----3--|---3-----3--|------------|------------|------------|------------|------------|
G|-------2-----|------2-----|---4-----4--|----2----2--|---2-----2--|---2-----2--|---2-----2--|
D|--0----------|-0----------|------4-----|------------|------4-----|------4-----|------4-----|
A|-------------|------------|-2----------|------4-----|------------|------------|------------|
E|-------------|------------|------------|-2----------|-2----------|-2----------|-2----------|

[Verse]
D
I wanna buy you roses
F#m
'Cause the words are dead,
D
Follow in the blindness
F#m
On the arrow head
Em
'Cause the words are dead
A
And you know it
Em
Yeah the words are dead
A
Lower them down

[Interlude]
e|--------------|-------------|-------------|-------------|-------------|-------------|-------------|   х4
B|--------------|-------------|----------0--|-------------|-------------|-------------|-------------|
G|--------2-----|-------2-----|-2-----2-----|-2-----2-----|-------2-----|-------2-----|-------2-----|
D|-----4-----4--|----4-----4--|----4--------|----4-----4--|----4-----4--|----4-----4--|----4-----4--|
A|--5-----------|-5-----------|-2-----------|-------------|-------------|-------------|-------------|
E|--------------|-------------|-------------|-2-----------|-2-----------|-2-----------|-2-----------|

[Verse]
D
Didn't know if you could
F#m
Deny the dead,
D
Leaving them in silence
F#m
On their mouldy bed
Em
Oh I am numb
A
And over
Em
Their kingdom come
A
Lower me down

[Chorus]

           D Bm F#m
They are dead,
           D Bm F#m
They are dead

[Interlude]
Em G A x2


[Verse]
           D  Bm  F#m
Oh, don't cry     for me,
           D  Bm  F#m
Oh, don't cry for me,
           D  Bm  F#m
Oh, don't cry for me,
               D  Bm  F#m
Oh, don't you cry     for me

[Outro]
G  Em   A    D         F#m G D
Lower them down in the ground
G  Em   A    D         F#m G D
Lower them down in the ground 

            
            
Suggest correction
Creating personal tab
Creating personal tab
You can edit any tab online and save it as your Personal.

You can edit, replace or remove any tab part or add personal notes – all changes will be seen only by you.

Personal tabs can be accessed anytime from any device, even offline.
Learn more »
Give kudos to tab author, rate the tab!
1 2 3 4 5
comments
print report bad tab
guest
You may want to rate the tab now too:
select rating
Wanna post a correction for this tab? Suggest correction