Oops, an error
Loading. Please wait.

Ruzo Moja Crvena Tab

7 views 1 this week
no commentswrite comment
1 2 3 4 5
3 more votes to show rating
add to favorites
launch autoscroll
font size
0
reset
how to read this tab
guitar tuner
Autoscroll
slow
fast
+/-
esc
set tempo
stop
Help us to improve Ultimate-Guitar.com Take our survey!
×
Author
Difficulty
novice
[Intro]

e|----------------5-3-5-8-7----7-8-10-7-8----8-8-7-5---------------------------------------------------------|
B|-1-3-1-3-5-6------------------------------------------1-3-5-6-5----5-6-5-1-5-3----3-3-1--1---1----3-1-0----|
G|-------------------------------------------------------------------------------------------3-------------1-|
D|-----------------------------------------------------------------------------------------------------------|
A|-----------------------------------------------------------------------------------------------------------|
E|-----------------------------------------------------------------------------------------------------------|


[Verse]
                                                  |After this rpt verse and play second ending.|
e|------------------------------------------------|--3-5-3-0-3---------|
B|---0-1--3-6-5--1--3-5-5--6-5-3--3--5-6-3--1-0-1-|--------------------|
G|-3----------------------------------------------|--------------1-----|
D|------------------------------------------------|--------------------|
A|------------------------------------------------|--------------------|
E|------------------------------------------------|--------------------|

|After this go to chorus.|
e|--3-5-3-0-3-----------|
B|--------------1-------|
G|----------------------| 2nd ending of the verse.
D|----------------------|
A|----------------------|
E|----------------------|

[Chorus]

e|----------------5-3-5-8-7----7-8-10-7-8----8-8-7-5--------------------------------------------------------|
B|-1-3-1-3-5-6------------------------------------------1-3-5-6-5----5-6-5-1-5-3----3-3-1--1---1------------|
G|-------------------------------------------------------------------------------------------3--------------|
D|----------------------------------------------------------------------------------------------------------|
A|----------------------------------------------------------------------------------------------------------|
E|----------------------------------------------------------------------------------------------------------|

e|--------------------| 1st ending of the chorus.
B|--5-6-5-3-1-1---1---|
G|--------------------|
D|--------------------| 
A|--------------------|
E|--------------------|

e|--------------------| 2nd ending of the chorus
B|--1--3--1--0--------|
G|--------------------|
D|--------------------|
A|--------------------|
E|--------------------|
Suggest correction
Give kudos to tab author, rate the tab!
1 2 3 4 5
comments
print report bad tab
guest
You may want to rate the tab now too:
select rating
Wanna post a correction for this tab? Suggest correction