Oops, an error
Loading. Please wait.

The Isle intro tab

by Ahab
175 views 3 this week
2 commentsread comments
1 2 3 4 5
3 more votes to show rating
add to favorites
×
Save as Personal and add changes to this tab that will be seen only by you. Learn more ›
×
You can save this tab as Personal to edit and correct it or add notes. All changes will be seen only by you. Learn more »
launch autoscroll
font size
0
reset
how to read this tab
guitar tuner
edit
Autoscroll
slow
fast
+/-
esc
set tempo
stop
Author
About this tab version
This song is most likely played on a 7-string, down-tuned ridiculously but this tab will allow the intro to be played in standard tuning. Was this info helpful? Yes No
tuning:  standard
effect:  clean with delay

[Intro]
e|------------------------------|----8---10---8---------------|
B|--------------------8---------|----8---8---8----------------|
G|-----8-------------8----------|---8------------10-----------|
D|---10------------10-----------|---8-----------8-------------|
A|--10--------------------------|--X--------------------------|
E|--8---------------------------|--6--------------------------|

e|------------------------------|-----------------------------|
B|------------------------------|---------------1-------------|
G|---7----7h8--5----------------|-----3----3--3---------------|
D|---8---------6----------------|----1------------------------|
A|--5---------6-----------------|---1-------------------------|
E|------------------------------|--1--------------------------|


e|------------------------------|----8---10---8---------------|
B|------------------8-----------|----8---8---8----------------|
G|-----8-----------8------------|---8------------10-----------|
D|---10-------------------------|---8-----------8-------------|
A|--10--------------------------|--X--------------------------|
E|--8---------------------------|--6--------------------------|

e|------------------------------|------------------------------|
B|--3----3h4p3------------------|--3----3h4p3------------------|
G|--3-----------5---------------|--3-----------5---------------|
D|--3-----------6---------------|--3-----------6---------------|
A|--3-----------6---------------|--3-----------6---------------|
E|--3-----------4---------------|--3-----------4---------------|


************************************

| x   Dead note
| h   Hammer-on
| p   Pull-off

************************************

            
            
Suggest correction
Creating personal tab
Creating personal tab
You can edit any tab online and save it as your Personal.

You can edit, replace or remove any tab part or add personal notes – all changes will be seen only by you.

Personal tabs can be accessed anytime from any device, even offline.
Learn more »
Give kudos to tab author, rate the tab!
1 2 3 4 5
comments
print report bad tab
2 comments total.
0 reply
panchoantonetti 10 Mar 13, 2017 11:07 AM

Awesome dude

0 reply
DropDeee 4,141 Mar 13, 2017 12:41 PM

Thanks for checking out the tab, Pancho :)

guest
You may want to rate the tab now too:
select rating
Wanna post a correction for this tab? Suggest correction