Oops, an error
Loading. Please wait.

Dream Team Tab

112 views 18 this week
1 commentread comment
1 2 3 4 5
2 more votes to show rating
add to favorites
launch autoscroll
font size
0
reset
how to read this tab
guitar tuner
Autoscroll
slow
fast
+/-
esc
set tempo
stop
Help us to improve Ultimate-Guitar.com Take our survey!
×
Author
Difficulty
Tuning
novice
D A D G B E
[Intro]

e|---------------------------------------------------------------------------|
B|---------------------------------------------------------------------------|
G|---2-----2---2-2-2-2-2-2-2-2---2---2---2-2-2-2-2-2-2-2---2---2---2-2-2-2-2-|
D|-----------4-----------------4---2-----------------------------------------|
A|-0---0h4-----------------------------5-----------------0---4---------------|
D|---------------------------------------------------------------4-----------|

e|---------------------------------------------------------------------------|
B|---------------------------------------------------------------------------|
G|-2-2-2---2---2---2-2-2-2-2-2-2-2-------------------------------------------|
D|---------------------------------------------------------------------------|
A|---------------------------------------------------------------------------|
D|-------4---2---0-----------------------------------------------------------|

[Verse 1]

e|---------------------------------------------------------------------------|
B|---------------------------------------------------------------------------|
G|---2-----2---2-2-2-2-2-2-2-2---2---2---2-2-2-2-2-2-2-2---2---2---2-2-2-2-2-|
D|-----------4-----------------4---2-----------------------------------------|
A|-0---4-------------------------------5-----------------0---4---------------|
D|---------------------------------------------------------------4-----------|

e|---------------------------------------------------------------------------|
B|---------------------------------------------------------------------------|
G|-2-2-2---2---2---2-2-2-2-2-2-2-2-------------------------------------------|
D|---------------------------------------------------------------------------|
A|---------------------------------------------------------------------------|
D|-------4---2---0-----------------------------------------------------------|

e|---------------------------------------------------------------------------|
B|---------------------------------------------------------------------------|
G|---2-----2---2-2-2-2-2-2-2-2---2---2---2-2-2-2-2-2-2-2---2---2---2-2-2-2-2-|
D|-----------4-----------------4---2-----------------------------------------|
A|-0---4-------------------------------5-----------------0---4---------------|
D|---------------------------------------------------------------4-----------|

e|---------------------------------------------------------------------------|
B|---------------------------------------------------------------------------|
G|-2-2-2---2---2---2-2-2-2-2-2-2/6-6-----------------------------------------|
D|---------------------------------------------------------------------------|
A|---------------------------------------------------------------------------|
D|-------4---2---0-----------------------------------------------------------|

[Instrumental]

e|---------------------------------------------------------------------------|
B|---------------------------------------------------------------------------|
G|---7-7---6-6---4-4---2-2-2-2-2-2-2-2---7-7---6-6---4-4---2---2-2-2-2-2-2-2-|
D|---------------------------------------------------------------------------|
A|---------------------------------------------------------------------------|
D|-6-----4-----2-----0-----------------6-----4-----2-----4---0---------------|

[Verse 2]

e|---------------------------------------------------------------------------|
B|---------------------------------------------------------------------------|
G|---2-----2---2-2-2-2-2-2-2-2---2---2---2-2-2-2-2-2-2-2---2---2---2-2-2-2-2-|
D|-----------4-----------------4---2-----------------------------------------|
A|-0---4-------------------------------5-----------------0---4---------------|
D|---------------------------------------------------------------4-----------|

e|---------------------------------------------------------------------------|
B|----------------------------------------------2-----2-----2-----2----------|
G|-2-2-2---2---2---2-2-2-2-2-2-2-2----2---2---2-----2-----2-----2-----2---2--|
D|------------------------------------------4-----4-----4-----4-----4---2----|
A|----------------------------------0---4------------------------------------|
D|-------4---2---0-----------------------------------------------------------|

e|---------------------------------------------------------------------------|
B|---------0-----0-----0-----0-----------------------------------------------|
G|---2---2-----2-----2-----2-----2---2-----2-----2-----2------2---2---2-----2|
D|-0---0-----0-----0-----0---------------4-----4-----4------4-------------2--|
A|-----------------------------0---4-----------------------------------------|
D|-------------------------------------4-----4-----4-----4------4---2---0----|

e|---------------------------------------------------------------------------|
B|---------------------------------------------------------------------------|
G|-----2-----2---------------------------------------------------------------|
D|---2-----2-----2/6-6-------------------------------------------------------|
A|---------------------------------------------------------------------------|
D|-0-----0-----0-------------------------------------------------------------|

[Instrumental]

e|---------------------------------------------------------------------------|
B|---------------------------------------------------------------------------|
G|---7-7---6-6---4-4---2-2-2-2-2-2-2-2---7-7---6-6---4-4---2---2-2-2-2-2-2-2-|
D|---------------------------------------------------------------------------|
A|---------------------------------------------------------------------------|
D|-6-----4-----2-----0-----------------6-----4-----2-----4---0---------------|


Did this by ear, so a lot might be wrong. That's all I got but if you figure out more I'd really 
appreciate if you just dropped it down in the comments.

Cheers

************************************

| h  Hammer-on
| /  Slide up

************************************
Suggest correction
Give kudos to tab author, rate the tab!
1 2 3 4 5
comments
print report bad tab
1 comment total.
0 reply
ebbbbbiesss 10 Sep 16, 2016 11:10 AM

bby your very talented than you or uploading this its a great help been looking for this for a while xx

guest
You may want to rate the tab now too:
select rating
Wanna post a correction for this tab? Suggest correction