Oops, an error
Loading. Please wait.

Life I Left Behind tab

version 3
version 3

Whole song

Interactive

by Aiden
452 views 1 this week
no commentswrite comment
1 2 3 4 5
3 more votes to show rating
add to favorites
×
Save as Personal and add changes to this tab that will be seen only by you. Learn more ›
×
You can save this tab as Personal to edit and correct it or add notes. All changes will be seen only by you. Learn more »
launch autoscroll
font size
0
reset
how to read this tab
guitar tuner
edit
Autoscroll
slow
fast
+/-
esc
set tempo
stop
Author
Band: Aiden
Song: Life I Left Behind
Album: Our Gang's Dark Oath
Tuning: 1/2 Step Down (Eb,Ab,Db,Gb,Bb,eb)
This is my first tab, any constructive criticism is welcome.
Tabber: Kei
E-Mail:threatsofregret@yahoo.com
~Note~
The credit for the majority of this tab goes to Alden Schulte.
 
eb|------------------------------------------------------------------------|
Bb|------------------------------------------------------------------------|
Gb|------------------------------------------------------------------------|
Db|--------9-------9----------9--------9-----------------------------------|
Ab|---10------10--------10-------10---------10-10---9-9---7-7---5-5---7-9--|
Eb|-8----8-------8---10----10-------10----0-------0-----0-----0-----0------|


|------------------------------------------------------------------------------|
|------------------------------------------------------------------------------|
|------------------------------------------------------------------------------|
|--------9-------9----------9--------9----10-10---9-9---10-10---12-12---14-14--|
|---10------10--------10-------10----------------------------------------------|
|-8----8-------8---10----10-------10----0-------0-----0-------0-------0--------|


|------------------------------------------------------------------------|
|------------------------------------------------------------------------|
|------------------------------------------------------------------------|
|--------9-------9----------9--------9----10-10---9-9---7-7---5-5---7-9--|
|---10------10--------10-------10----------------------------------------|
|-8----8-------8---10----10-------10----0-------0-----0-----0-----0------|


|------------------------------------------------------------------------------|
|------------------------------------------------------------------------------|
|------------------------------------------------------------------------------|
|--------9-------9----------9--------9----10-10---9-9---10-10---12-12---14-14--|
|---10------10--------10-------10----------------------------------------------|
|-8----8-------8---10----10-------10----0-------0-----0-------0-------0--------|


|------------------------------------------------------------------------|
|------------------------------------------------------------------------|
|------------------------------------------------------------------------|
|--------9-------9----------9--------9----10-10---9-9---7-7---5-5---7-9--|
|---10------10--------10-------10----------------------------------------|
|-8----8-------8---10----10-------10----0-------0-----0-----0-----0------|


|---10-----12p10---10---10-----12p10---10----8--8-7---8---8-7-5--7-|
|-8----8-8-------8----8----8-8-------8-----5---5----5---5----------|
|------------------------------------------------------------------|
|------------------------------------------------------------------|
|------------------------------------------------------------------|
|------------------------------------------------------------------|


|---10-----12p10---10---10-----12p10---10----8--8-7---8---8-7-5--7-|
|-8----8-8-------8----8----8-8-------8-----5---5----5---5----------|
|------------------------------------------------------------------|
|------------------------------------------------------------------|
|------------------------------------------------------------------|
|------------------------------------------------------------------|


|---10-----12p10---10---10-----12p10---10----8--8-7---8---8-7-5--7-|
|-8----8-8-------8----8----8-8-------8-----5---5----5---5----------|
|------------------------------------------------------------------|
|------------------------------------------------------------------|
|------------------------------------------------------------------|
|------------------------------------------------------------------|


|--------10---12p10----10----12p10----10----8---8-7----------------|
|-8--8-8----8--------8----8---------8-----5---5--------------------|
|------------------------------------------------------------------|
|------------------------------------------------------------------|
|------------------------------------------------------------------|
|------------------------------------------------------------------|

|------------------------------------------------------------------|
|------------------------------------------------------------------|
|-5--5----7--7----------------------------------5--5----7--7-------|
|-5--5----7--7---5-5---4-4---2-2---0-0---2-4----5--5----7--7-------|
|-3--3----5--5----------------------------------3--3----5--5-------|
|------------------------------------------------------------------|


|----------------------------------------------|
|----------------------------------------------|
|-------------------------------5--5----7--7---|
|-5-5---4-4---5-5---7-7---9-9---5--5----7--7---|
|-------------------------------3--3----5--5---|
|----------------------------------------------|


|---------------------------------------------|
|---------------------------------------------|
|--------------------------------5--5----7--7-|
|-5-5---4-4---2-2---0-0---2-4----5--5----7--7-|
|--------------------------------3--3----5--5-|
|---------------------------------------------|



|-------------------------------------------------------------------|
|-------------------------------------------------------------------|
|-------------------------------------------------------------8~~~8-|
|-2-2--222--222--2-2--222--222--2-2--222--222--2-2--222--222--x~~~x-|
|-2-2--222--222--2-2--222--222--2-2--222--222--2-2--222--222--6~~~6-|
|-0-0--000--000--0-0--000--000--0-0--000--000--0-0--000--000--------|
Pm * *  ***  ***  * *  ***  ***  * *  ***  ***  * *  ***  ***

               (Bass line here)        | Fast Strumming |       
|-------------------------------------------------------------------|
|-------------------------------------------------------------------|
|-8888------8888------8888------8888----88-8-888-8-88888-88-8-888-8-|
|-xxxx------xxxx------xxxx------xxxx----xx-x-xxx-x-xxxxx-xx-x-xxx-x-|
|-6666------6666------6666------6666----66-6-666-6-66666-66-6-666-6-|
|-------------------------------------------------------------------|


|-------------------------------------------|
|-------------------------------------------|
|-88888-88-8-888-8-88888-88-8-888-8-88888-8-|
|-xxxxx-xx-x-xxx-x-xxxxx-xx-x-xxx-x-xxxxx-x-|
|-66666-66-6-666-6-66666-66-6-666-6-66666-6-|
|-------------------------------------------|


|----------------------------------------------------|
|----------------------------------------------------|
|-9999999999999999-1212121212121212-1111111111111111-|
|-xxxxxxxxxxxxxxxx-xxxxxxxxxxxxxxxx-xxxxxxxxxxxxxxxx-|
|-7777777777777777-1010101010101010--9-9-9-9-9-9-9-9-|
|----------------------------------------------------|


|----------------------------------------------------|
|----------------------------------------------------|
|-9999999999999999-1212121212121212-1111111111111111-|
|-xxxxxxxxxxxxxxxx-xxxxxxxxxxxxxxxx-xxxxxxxxxxxxxxxx-|
|-7777777777777777-1010101010101010--9-9-9-9-9-9-9-9-|
|----------------------------------------------------|



|-----------------------------------------------------|
|-----------------------------------------------------|
|-99-9-99-9-99-9-99-9-1212-12-1212-12-1111-11-1111-11-|
|-xx-x-xx-x-xx-x-xx-x-xxxx-xx-xxxx-xx--x-x--x--x-x--x-|
|-77 7-77-7-77-7-77-7-1010-10-1010-10--9-9--9--9-9--9-|
|-----------------------------------------------------|
PM **   **   **   **   ****    ****     * *     * *   


|--------------------------------------------------------|
|--------------------------------------------------------|
|-99-9-99-9-99-9-99-9-1212-12-1212-12-1111-11-1111-------|
|-xx-x-xx-x-xx-x-xx-x-xxxx-xx-xxxx-xx--x-x--x--x-x--2222-|
|-77 7-77-7-77-7-77-7-1010-10-1010-10--9-9--9--9-9--2222-|
|---------------------------------------------------0000-|
PM **   **   **   **   ****    ****     * *     * *  


|-----------------------------------------------------------------|
|-----------------------------------------------------------------|
|-----------------55-55-44-44-444-----------------55-55-44-44-444-|
|-22-22-22-22-222-55-55-44-44-444-22-22-22-22-222-55-55-44-44-444-|
|-22-22-22-22-222-33-33-22-22-222-22-22-22-22-222-33-33-22-22-222-|
|-00-00-00-00-000-----------------00-00-00-00-000-----------------|
PM  *  *  *  * **   *  *  *  * **   *  *  *  * **   *  *  *  * **


|-----------------------------------------------------------------|
|-----------------------------------------------------------------|
|-----------------55-55-44-44-444-----------------55-55-44-44-444-|
|-22-22-22-22-222-55-55-44-44-444-22-22-22-22-222-55-55-44-44-444-|
|-22-22-22-22-222-33-33-22-22-222-22-22-22-22-222-33-33-22-22-222-|
|-00-00-00-00-000-----------------00-00-00-00-000-----------------|
PM  *  *  *  * **   *  *  *  * **   *  *  *  * **   *  *  *  * **


|-----------------------------------------------------------------|
|-----------------------------------------------------------------|
|-----------------55-55-44-44-444-----------------55-55-44-44-444-|
|-22-22-22-22-222-55-55-44-44-444-22-22-22-22-222-55-55-44-44-444-|
|-22-22-22-22-222-33-33-22-22-222-22-22-22-22-222-33-33-22-22-222-|
|-00-00-00-00-000-----------------00-00-00-00-000-----------------|
PM  *  *  *  * **   *  *  *  * **   *  *  *  * **   *  *  *  * **


|-----------------------------------------------------------------|
|-----------------------------------------------------------------|
|-----------------55-55-44-44-444-----------------55-55-44-44-444-|
|-22-22-22-22-222-55-55-44-44-444-22-22-22-22-222-55-55-44-44-444-|
|-22-22-22-22-222-33-33-22-22-222-22-22-22-22-222-33-33-22-22-222-|
|-00-00-00-00-000-----------------00-00-00-00-000-----------------|
PM  *  *  *  * **   *  *  *  * **   *  *  *  * **   *  *  *  * **


|-----------------------------------------------------------------|
|-----------------------------------------------------------------|
|-----------------55-55-44-44-444-----------------55-55-44-44-444-|
|-22-22-22-22-222-55-55-44-44-444-22-22-22-22-222-55-55-44-44-444-|
|-22-22-22-22-222-33-33-22-22-222-22-22-22-22-222-33-33-22-22-222-|
|-00-00-00-00-000-----------------00-00-00-00-000-----------------|
PM  *  *  *  * **   *  *  *  * **   *  *  *  * **   *  *  *  * **


|-----------------------------------------------------------------|
|-----------------------------------------------------------------|
|-----------------55-55-44-44-444-----------------55-55-44-44-444-|
|-22-22-22-22-222-55-55-44-44-444-22-22-22-22-222-55-55-44-44-444-|
|-22-22-22-22-222-33-33-22-22-222-22-22-22-22-222-33-33-22-22-222-|
|-00-00-00-00-000-----------------00-00-00-00-000-----------------|
PM  *  *  *  * **   *  *  *  * **   *  *  *  * **   *  *  *  * **

         | Fast Strumming |
|-----------------------------------------------------|
|-----------------------------------------------------|
|------------------55555555-44444444------------------|
|-2222222222222222-55555555-44444444-2222222222222222-|
|-2222222222222222-33333333-22222222-2222222222222222-|
|-0000000000000000-------------------0000000000000000-|


|------------------------------------------------------|
|------------------------------------------------------|
|-55555555-44444444------------------55555555-44444444-|
|-55555555-44444444-2222222222222222-55555555-44444444-|
|-33333333-22222222-2222222222222222-33333333-22222222-|
|-------------------0000000000000000-------------------|


|--------------------------------------|
|--------------------------------------|
|------------------55555555-44444444---|  END
|-2222222222222222-55555555-44444444-2-|
|-2222222222222222-33333333-22222222-2-|
|-0000000000000000-------------------0-|


------------------------------------------------------------------------

                            Guitar 2
                          ------------
      | Let Ring |
|--3~~~~~5~~~~~~0~~~~~~~~~3~~~~~~5~~~~~~0~~~~~~~|
|--0~~~~~0~~~~~~0~~~~~~~~~0~~~~~~0~~~~~~0~~~~~~~|
|--0~~~~~0~~~~~~0~~~~~~~~~0~~~~~~0~~~~~~0~~~~~~~|
|--5~~~~~7~~~~~~2~~~~~~~~~5~~~~~~7~~~~~~2~~~~~~~|
|--3~~~~~5~~~~~~2~~~~~~~~~3~~~~~~5~~~~~~2~~~~~~~|
|-----------------------------------------------|


|-3-----5-----0---------|
|-0~~~~~0~~~~~0~~~~~~~~~|  ( doesn't play til 
|-0~~~~~0~~~~~0~~~~~~~~~|    right before chorus)
|-5~~~~~7~~~~~2~~~~~~~~~|
|-3~~~~~5~~~~~2~~~~~~~~~|
|-----------------------|


|------------------------------------------------------------|
|------------------------------------------------------------|
|-----------------5--5---7--7------------12/11---------12/11-|
|-2222222222222---5--5---7--7----2-2-222--x/x--2-2-222- x/x--|
|-2222222222222---3--3---5--5----2-2-222-10/9--2-2-222-10/9--|
|-0000000000000------------------0-0-000-------0-0-000-------|
PM ************                   * * ***       * * ***


|-----------------------------------------------------------|
|-----------------------------------------------------------|
|--5--5---7--7-----------12/11---------12/11---5--5---7--7--|
|--5--5---7--7---2-2-222--x/x--2-2-222- x/x----5--5---7--7--|
|--3--3---5--5---2-2-222-10/9--2-2-222-10/9----3--3---5--5--|
|----------------0-0-000-------0-0-000----------------------|
PM*               * * ***       * * ***


|---------------------------------------------|
|---------------------------------------------|
|----------12/11---------12/11---5--5---7--7--|
|--2-2-222--x/x--2-2-222- x/x----5--5---7--7--|
|--2-2-222-10/9--2-2-222-10/9----3--3---5--5--|
|--0-0-000-------0-0-000----------------------|
PM* * * ***       * * ***


|----------------------------------------------------------------|
|----------------------------------------------------------------|
|----------12/11-----------12/11-----------12/11-----------12/11-|
|-2-2--222--x/x---2-2--222--x/x---2-2--222--x/x---2-2--222--x/x--|
|-2-2--222-10/9---2-2--222-10/9---2-2--222-10/9---2-2--222-10/9--|
|-0-0--000--------0-0--000--------0-0--000--------0-0--000-------|
Pm * *  ***        * *  ***        * *  ***        * *  *** 


|--------|
|--------| bass part played with open Eb, if you wanna play it.
|-8~~~~8-|
|-x----x-|
|-6~~~~6-|
|--------|

 reversed from other guitar, listen to the song  |fast strumming|
|-------------------------------------------------------------------|
|-------------------------------------------------------------------|
|-8888------8888------8888------8888----88-8-888-8-88888-88-8-888-8-|
|-xxxx------xxxx------xxxx------xxxx----xx-x-xxx-x-xxxxx-xx-x-xxx-x-|
|-6666------6666------6666------6666----66-6-666-6-66666-66-6-666-6-|
|-------------------------------------------------------------------|


|-------------------------------------------|
|-------------------------------------------|
|-88888-88-8-888-8-88888-88-8-888-8-88888-8-|
|-xxxxx-xx-x-xxx-x-xxxxx-xx-x-xxx-x-xxxxx-x-|
|-66666-66-6-666-6-66666-66-6-666-6-66666-6-|
|-------------------------------------------|


|----------------------------------------------------|
|----------------------------------------------------|
|-9999999999999999-1212121212121212-1111111111111111-|
|-xxxxxxxxxxxxxxxx-xxxxxxxxxxxxxxxx-xxxxxxxxxxxxxxxx-|
|-7777777777777777-1010101010101010--9-9-9-9-9-9-9-9-|
|----------------------------------------------------|


|----------------------------------------------------|
|----------------------------------------------------|
|-9999999999999999-1212121212121212-1111111111111111-|
|-xxxxxxxxxxxxxxxx-xxxxxxxxxxxxxxxx-xxxxxxxxxxxxxxxx-|
|-7777777777777777-1010101010101010--9-9-9-9-9-9-9-9-|
|----------------------------------------------------|


|-----------------------------------------------------|
|-----------------------------------------------------|
|-99-9-99-9-99-9-99-9-1212-12-1212-12-1111-11-1111-11-|
|-xx-x-xx-x-xx-x-xx-x-xxxx-xx-xxxx-xx--x-x--x--x-x--x-|
|-77 7-77-7-77-7-77-7-1010-10-1010-10--9-9--9--9-9--9-|
|-----------------------------------------------------|
PM **   **   **   **   ****    ****     * *     * *   


|-----------------------------------------------------------|
|-----------------------------------------------------------|
|-99-9-99-9-99-9-99-9-1212-12-1212-12-1111-11-1111-11111111-|
|-xx-x-xx-x-xx-x-xx-x-xxxx-xx-xxxx-xx--x-x--x--x-x--x-x-x-x-|
|-77 7-77-7-77-7-77-7-1010-10-1010-10--9-9--9--9-9--9-9-9-9-|
|-----------------------------------------------------------|
PM **   **   **   **   ****    ****     * *     * *  

-------------------------------------------------------
    SOLO
|---------------------------------------------------------|
|---------------------------------------------888-777-555-|
|-----------------44-55-777-555-444-555-7p5-4-------------|
|-222-444-555/777-----------------------------------------|
|---------------------------------------------------------|
|---------------------------------------------------------|


|-----------5555555/7~~~~~|
|-777-8-7h8---------------|
|-------------------------|
|-------------------------|
|-------------------------|
|-------------------------|
-------------------------------------------------------
       last stretch of the song.
|---------------------------------------------|
|---------------------------------------------|
|---------------------------------------------|
|-7p9-5p7-4p5-2-2222-2--7p9-5p7-4p5-2-2222-2--|
|---------------------------------------------|
|---------------------------------------------|
 PM*             ****                  ****


|----------------------------------------------------|
|----------------------------------------------------|
|----------------7p9-9p11-11p12----------------------|
|-7p9-9p10-10p12----------------7p9-5p7-4p5-2-2222-2-| 
|----------------------------------------------------|
|----------------------------------------------------|
 PM*                                           ****

|---------------------------------------------|
|---------------------------------------------|
|---------------------------------------------|
|-7p9-5p7-4p5-2-2222-2--7p9-5p7-4p5-2-2222-2--|
|---------------------------------------------|
|---------------------------------------------|
 PM*             ****                  ****


|----------------------------------------------------|
|----------------------------------------------------|
|----------------7p9-9p11-11p12----------------------|
|-7p9-9p10-10p12----------------7p9-5p7-4p5-2-2222-2-| 
|----------------------------------------------------|
|----------------------------------------------------|
 PM*                                           ****


|---------------------------------------------|
|---------------------------------------------|
|---------------------------------------------|
|-7p9-5p7-4p5-2-2222-2--7p9-5p7-4p5-2-2222-2--|
|---------------------------------------------|
|---------------------------------------------|
 PM*             ****                  ****


|----------------------------------------------------|
|----------------------------------------------------|
|----------------7p9-9p11-11p12----------------------|
|-7p9-9p10-10p12----------------7p9-5p7-4p5-2-2222-2-| 
|----------------------------------------------------|
|----------------------------------------------------|
 PM*                                           ****


|---------------------------------------------|
|---------------------------------------------|
|---------------------------------------------|
|-7p9-5p7-4p5-2-2222-2--7p9-5p7-4p5-2-2222-2--|
|---------------------------------------------|
|---------------------------------------------|
 PM*             ****                  ****


|----------------------------------------------------|
|----------------------------------------------------|
|----------------7p9-9p11-11p12----------------------|
|-7p9-9p10-10p12----------------7p9-5p7-4p5-2-2222-2-| END 
|----------------------------------------------------|
|----------------------------------------------------|
PM*                                           ****

 --------------------------------
 Aiden~ Life I Left Behind~Lyrics
 --------------------------------
 I remember when I used to wake up
 I remember what I used to be
 I remember how I used to wake up so wrong now
 I remember this life I left behind
 On empty shelves
 In empty rooms
 In lifeless skies
 In lifeless skies
 In empty shells
 I remember when I used to
 Be my own self
 I remember when
 We were so young
 I remember when I used to
 Wake up so lost now
 I remember when
 we were so
 My friend
 My own
 My end

 Break
 watch me break

 She won't have to stand and walk alone now
 to stand and walk alone
 Don't have to stand and walk between us now
 forever wanting

 This life has never made me question
 is it wrong to think
 how empty is the answers
 This life has never made me question
 is it wrong to think
 how empty is the answers

 This life I left behind
 This life I left behind for you

            
            
Suggest correction
Creating personal tab
Creating personal tab
You can edit any tab online and save it as your Personal.

You can edit, replace or remove any tab part or add personal notes – all changes will be seen only by you.

Personal tabs can be accessed anytime from any device, even offline.
Learn more »
Give kudos to tab author, rate the tab!
1 2 3 4 5
comments
print report bad tab
guest
You may want to rate the tab now too:
select rating
Wanna post a correction for this tab? Suggest correction