Oops, an error
Loading. Please wait.

Moment Tab

version 1
version 1

Whole song

Interactive

4,572 views 1 this week
5 commentsread comments
1 2 3 4 5
worth learning
x 4
add to favorites
launch autoscroll
font size
0
reset
how to read this tab
guitar tuner
Autoscroll
slow
fast
+/-
esc
set tempo
stop
Help us to improve Ultimate-Guitar.com Take our survey!
×
Author
----------------------------------------------------------------------------
                             moment- Band Name
----------------------------------------------------------------------------
Tabbed by: les paul fan
Email: nick.homa@verizon.net

Hey i tabbed this from the Acoustic Aiden moment from when they played at Looney Tunes 
it might not sound perfect with destorcian.

intro Guitar 1 only
e|------------------------------|
B|------------------------------|
G|-7777----3333----777755553333-|
D|-7777777733333333777755553333-| x1
A|-5555777711113333555533331111-|
E|-----5555----3333-------------|
verse 
e|----------------------------------------------------------|
B|----------------------------------------------------------|
G|---------444444446666666655555555--------6666666655555555-|
D|-33333333444444446666666655555555333333336666666655555555-| x2
A|-33333333222222224444444433333333333333334444444433333333-|
E|-11111111------------------------11111111-----------------|
Pm---------------------------------------------------------
Not completely shure Pre chorus guitar 2
e|----------------------|
B|----------------------|
G|---4---4----3---3-----|
D|--4-4-4-4--3-3-3-3----|
A|-2--------2-----------|
E|----------------------|

Pre chorus guitar 1
e|-------------|
B|-------------|
G|-3-333-6-666-|
D|-3-333-6-666-|
A|-1-111-4-444-|
E|-------------|

Guitar 1 chorus
e|------------------------------|
B|------------------------------|
G|-7777--------3333777755553333-|
D|-7777777733333333777755553333-|x1
A|-5555777733331111555533331111-|
E|-----55551111-----------------|

Not completely shure Guitar 2 chorus
e|----------------------------------|
B|-----10-----10-------10-----10----|
G|---10--10-10--10---10--10-10--10--|
D|-12--------------11---------------| x2
A|----------------------------------|
E|----------------------------------|

Repeat verse

Repeat pre chorus

Repeat chorus x2

Bridge guitar 1
Not quite shure I think its something like this
e|-------------------------------------------------------------------|
B|---------------------55---------------------------------55---------|
G|-77777777777777773333555577777777777777777777777773333555577777777-|
D|-77777777777777773333335577777777777777777777777773333553377777777-|
A|-55555555555555551111--335555555555555555555555551111333--55555555-|
E|-------------------------------------------------------------------|
pm------------------------------------------------------------------
continued
e|--------------------x2-------------------|---------------|
B|-----------------------------------------|---------------|
G|-3333333355555555333333335555555577775555|-3333333355557-|
D|-3333333355555555333333335555555577775555|-3333333355557-|
A|-1111111133333333111111113333333355553333|-1111111133335-|
E|-----------------------------------------|---------------|

Guitar 1 pre chorus altered
|---------------|
|---------------|
|-3333333355557-|
|-3333333355557-|
|-1111111133335-|
|---------------|

Not completely shure Pre chorus guitar 2
e|----------------------|
B|----------------------|
G|---4---4----3---3-----|
D|--4-4-4-4--3-3-3-3----|
A|-2--------2-----------|
E|----------------------|

Repeat chorus x2


Please rate!
Suggest correction
What's this?
You can suggest a correction to this tab. Community and Mods will review your correction and vote to approve or reject it.
comments
print report bad tab
5 comments total. Showing first comments.
-1 reply
wesleepforever4 82 wrote on November 6 2007, 01:02 pm

hey i think the pre chours is
e|------------------------|
B|------------------------|
G|---3---3-----5----5-----|
D|--3-3-3-3---5-5--5-5----|
A|-1---1-----3----3-------|
E|------------------------|

and the intro and chours
e|------------------------------|
B|------------------------------|
G|-7777----3333----777755553333-|
D|-7777777733333333777755553333-|
A|-5555777711113333555533331111-|
E|-----5555----1111-------------|

-2 reply
girth 10 wrote on February 20 2008, 11:40 am

sucks

+1 reply
avenged_markus 13 wrote on February 22 2008, 03:58 pm

why not dropped tuning? this would be much easier!

guest
You may want to rate the tab now too:
select rating
Please do not post tabs as comments. Select "correction" instead!