Oops, an error
Loading. Please wait.

The Sky Is Falling tab

version 1
version 1

Whole song

Interactive

by Aiden
2,838 views 1 this week
4 commentsread comments
1 2 3 4 5
2 more votes to show rating
add to favorites
×
Save as Personal and add changes to this tab that will be seen only by you. Learn more ›
×
You can save this tab as Personal to edit and correct it or add notes. All changes will be seen only by you. Learn more »
launch autoscroll
font size
0
reset
how to read this tab
guitar tuner
edit
Autoscroll
slow
fast
+/-
esc
set tempo
stop
-------------------------------------------------------------------------------
                          THE SKY IS FALLING - AIDEN
-------------------------------------------------------------------------------
Tabbed by:

Tuning:Low to High 
D-G-C-F-A-D

I hear the sky is falling...
e|-------------|------------|------------|-------------|
B|-------------|------------|------------|-------------|
G|-------------|------------|------------|-------------| X2
D|-------------|------------|------------|-------------|
A|---5--5--5--5|--4--4--4--4|--5--5--5--5|--5--5--5--5-|
E|--3--3--3--3-|-5--5--5--5-|-7--7--7--7-|-7--7--7--7--|

If all we are is dust....              How I wanted to
e|------------|------------|------------|---------------|
B|------------|------------|------------|---------------|
G|------------|------------|------------|---------------|
D|--4--4--4--4|------------|--4--4--4--4|--4--4--4--4---|
A|-5--5--5--5-|--4--4--4--4|-5--5--5--5-|-5--5--5--5----|
E|------------|-5--5--5--5-|------------|---------------|

say......
e|-------------|------------|------------|-------------|
B|-------------|------------|------------|-------------|
G|-------------|------------|------------|-------------| X3
D|-------------|------------|------------|-------------|
A|---5--5--5--5|--4--4--4--4|--5--5--5--5|--5--5--5--5-|
E|--3--3--3--3-|-5--5--5--5-|-7--7--7--7-|-7--7--7--7--|

Armed with words...
e|------------|------------|------------|---------------|
B|------------|------------|------------|---------------|
G|------------|------------|------------|---------------|
D|--4--4--4--4|------------|--4--4--4--4|--4--4--4--4---|
A|-5--5--5--5-|--4--4--4--4|-5--5--5--5-|-5--5--5--5----|
E|------------|-5--5--5--5-|------------|---------------|

e|-------------|------------|------------|-------------|
B|-------------|------------|------------|-------------|
G|-------------|------------|------------|-------------|
D|-------------|------------|------------|-------------|
A|---5--5--5--5|--4--4--4--4|--5--5--5--5|--5--5--5--5-|
E|--3--3--3--3-|-5--5--5--5-|-7--7--7--7-|-7--7--7--7--|

e|-------------|------------|------------|-------------|-------------|
B|-------------|------------|------------|-------------|-------------|
G|-------------|------------|------------|-------------|-------------|
D|-------------|------------|------------|-------------|-------------|
A|---4--4--4--4|--4--4--4--4|--5--5--5--5|--5--5--5--5-|--4--4--4--4-|
E|--5--5--5--5-|-5--5--5--5-|-3--3--3--3-|-3--3--3--3--|-5--5--5--5--|

e|-------------|
B|-------------|
G|-------------|
D|-------------|
A|--4--4--4--4-|
E|-5--5--5--5--|

Now kiss me..
e|-------------|------------|------------|------------|------------|
B|-------------|------------|------------|------------|------------|
G|-------------|------------|------------|------------|------------|
D|--5--5--5--5-|--5--5--5--5|--4--4--4--4|--4--4--4--4|--5--5--5--5|
A|-7--7--7--7--|-7--7--7--7-|-5--5--5--5-|-5--5--5--5-|-3--3--3--3-|
E|-------------|------------|------------|------------|------------|

e|-------------|------------|------------|
B|-------------|------------|------------|
G|-------------|------------|------------|
D|--5--5--5--5-|--4--4--4--4|--4--4--4--4|X2
A|-3--3--3--3--|-5--5--5--5-|-5--5--5--5-|
E|-------------|------------|------------|

I know the sky...
e|-------------|------------|------------|-------------|
B|-------------|------------|------------|-------------|
G|-------------|------------|------------|-------------| X2
D|-------------|------------|------------|-------------|
A|---5--5--5--5|--4--4--4--4|--5--5--5--5|--5--5--5--5-|
E|--3--3--3--3-|-5--5--5--5-|-7--7--7--7-|-7--7--7--7--|

e|------------|------------|------------|---------------|
B|------------|------------|------------|---------------|
G|------------|------------|------------|---------------|
D|--4--4--4--4|------------|--4--4--4--4|--4--4--4--4---|
A|-5--5--5--5-|--4--4--4--4|-5--5--5--5-|-5--5--5--5----|
E|------------|-5--5--5--5-|------------|---------------|

e|-------------|------------|------------|-------------|
B|-------------|------------|------------|-------------|
G|-------------|------------|------------|-------------|
D|-------------|------------|------------|-------------|
A|---5--5--5--5|--4--4--4--4|--5--5--5--5|--5--5--5--5-|
E|--3--3--3--3-|-5--5--5--5-|-7--7--7--7-|-7--7--7--7--|

e|-------------|------------|------------|-------------|-------------|
B|-------------|------------|------------|-------------|-------------|
G|-------------|------------|------------|-------------|-------------|
D|-------------|------------|------------|-------------|-------------|
A|---4--4--4--4|--4--4--4--4|--5--5--5--5|--5--5--5--5-|--4--4--4--4-|
E|--5--5--5--5-|-5--5--5--5-|-3--3--3--3-|-3--3--3--3--|-5--5--5--5--|

e|-------------|---|
B|-------------|---|
G|-------------|---|
D|-------------|-0-|
A|--4--4--4--4-|-5-|
E|-5--5--5--5--|-7-|

e|----------|-----------|------|
B|----------|-----------|------|
G|----------|-----------|------|
D|-5555-7777|-9999-7777-|--5~--|
A|-5555-7777|-9999-7777-|--5~--|
E|-3333-5555|-7777-5555-|--3~--|





            
            
Suggest correction
Creating personal tab
Creating personal tab
You can edit any tab online and save it as your Personal.

You can edit, replace or remove any tab part or add personal notes – all changes will be seen only by you.

Personal tabs can be accessed anytime from any device, even offline.
Learn more »
Give kudos to tab author, rate the tab!
1 2 3 4 5
comments
print report bad tab
4 comments total. Showing first comments.
+1 reply
SLASHer77 383 Feb 25, 2008 02:47 PM

Good tab. there are a few transition notes missing, but that really doesn't matter. In the second part where you put
D--4-4-4-4---------------
A-5-5-5-5----4-4-4-4-----
E-----------5-5-5-5------

I'm pretty sure it should be
D--4-4-4-4---2-2-2-2------
A-5-5-5-5---4-4-4-4-------
E-------------------------

but good job, 5 stars

0 reply
SLASHer77 383 Feb 26, 2008 04:36 PM

Oh and the tuning. you put the right one on the tab(DGCFAD)but you put Drop D on the thing above it. still good though.

+1 reply
andrewjf 829 Feb 27, 2008 07:45 AM

DGCFAD? if thats the tuning,why did u tab it out in standard?

guest
You may want to rate the tab now too:
select rating
Wanna post a correction for this tab? Suggest correction