Oops, an error
Loading. Please wait.

We Sleep Forever tab

version 6
version 6

Interactive

by Aiden
122 views 3 this week
no commentswrite comment
1 2 3 4 5
3 more votes to show rating
add to favorites
×
Save as Personal and add changes to this tab that will be seen only by you. Learn more ›
×
You can save this tab as Personal to edit and correct it or add notes. All changes will be seen only by you. Learn more »
launch autoscroll
font size
0
reset
how to read this tab
guitar tuner
edit
Autoscroll
slow
fast
+/-
esc
set tempo
stop
Band: Aiden
Song: We Sleep Forever
Album: Rain In Hell

Standard Tuning

GUITAR 1 (RHYTHM GUITAR)

Intro / Chorus
e) ----------------------------------------------------------------|
B) ----------------------------------------------------------------|
G) ----------------------------------------------------------------|
D) 8---8-6---6-6---4---4-6---6-6---8---8-6---6-6---4---4-6---xxxxxx|
A) 8---8-6---6-6---4---4-6---6-6---8---8-6---6-6---4---4-6---xxxxxx|
E) 6---6-4---4-4---2---2-4---4-4---6---6-4---4-4---2---2-4---xxxxxx|

e) ----------------------------------------------------------------|
B) ----------------------------------------------------------------|
G) ----------------------------------------------------------------|
D) 8---8-6---6-6---4---4-6---6-6---8---8-6---6-6---4-----6--6-666--|
A) 8---8-6---6-6---4---4-6---6-6---8---8-6---6-6---4-----6--6-666--|
E) 6---6-4---4-4---2---2-4---4-4---6---6-4---4-4---2-----4--4-444--|

Verse 1 (8 bars of rest, then):
e) ----------------------------------------------------------------|
B) ----------------------------------------------------------------|
G) -h-----------h-----------h-------h-----------h----------8-8-8-8-| Repeat
D) 6-8-8-8-8-8-6-8-8-8-8-8-6-8-8-8-6-8-8-8-8-8-6-8-8-8-8-8---------| 2x
A) ----------------------------------------------------------------|
E) ----------------------------------------------------------------|
       . . . .     . . . .     . .     . . . .     . . . .

e) ----------------------------------------|
B) ----------------------------------------|
G) -h-----------h-----------h--------------|
D) 6-8-8-8-8-8-6-8-8-8-8-8-6-8-8-8-8-------|
A) ----------------------------------------|
E) ----------------------------------------|
       . . . .     . . . .     . .     

Repeat Chorus

Repeat Verse (Without the rests at the beginning, & the first line is played 4x instead of 2x)

Chorus 3
e) ----------------------------------------------------------------|
B) ----------------------------------------------------------------|
G) ----------------------------------------------------------------|
D) 8---8-6---6-6---4---4-6---6-6---8---8-6---6-6---4---4-6---xxxxxx|
A) 8---8-6---6-6---4---4-6---6-6---8---8-6---6-6---4---4-6---xxxxxx|
E) 6---6-4---4-4---2---2-4---4-4---6---6-4---4-4---2---2-4---xxxxxx|

e) ----------------------------------------------------------------------|
B) ----------------------------------------------------------------------|
G) ----------------------------------------------------------------------|
D) 8---8-6---6-6---4---4-6---6-6---8---8-6---6-6---4-----6--6-xxxxxxxxxx-|
A) 8---8-6---6-6---4---4-6---6-6---8---8-6---6-6---4-----6--6-xxxxxxxxxx-|
E) 6---6-4---4-4---2---2-4---4-4---6---6-4---4-4---2-----4--4-xxxxxxxxxx-|

Bridge
e) ----------------------------------------------------------------|
B) ----------------------------------------------------------------|
G) --------------------------------8-8-8-8-8-8-8-8-111111116-------|
D) 8-8-8-8-8-8-8-8-11111111111111118-8-8-8-8-8-8-8-111111116-6-6-6-| 4x
A) 8-8-8-8-8-8-8-8-11111111111111116-6-6-6-6-6-6-6-9-9-9-9-4-6-6-6-|
E) 6-6-6-6-6-6-6-6-9-9-9-9-9-9-9-9---------------------------4-4-4-|
     . . . . . . .   . . . . . . .   . . . . . . .   . . .   . . .

e) ---------------------------------------|
B) ---------------------------------------|
G) ---------------------------------------|
D) 8--------6--------4--------4---xxxxxxxx|
A) 8--------6--------4--------4---xxxxxxxx|
E) 6--------4--------2--------2---xxxxxxxx|

"We Sleep Forever" Part
e) -----------------------------------------------------------------|
B) -----------------------------------------------------------------|
G) --------------------------------8-8-8-8-8-8-8-8-1111111113131313-|
D) 8-8-8-8-8-8-8-8-11111111111111118-8-8-8-8-8-8-8-1111111113131313-| 2x
A) 8-8-8-8-8-8-8-8-11111111111111116-6-6-6-6-6-6-6-9-9-9-9-11111111-|
E) 6-6-6-6-6-6-6-6-9-9-9-9-9-9-9-9----------------------------------|

e) ----------------------------------------------------------------|
B) ----------------------------------------------------------------|
G) ----------------------------------------------------------------| 1 bar rest
D) 8-8-8-8-8-8-8-8-6-6-6-6-6-6-6-6-4-4-4-4-4-4-4-4-3-3-3-3-3-3-3-3-| after final
A) 8-8-8-8-8-8-8-8-6-6-6-6-6-6-6-6-4-4-4-4-4-4-4-4-3-3-3-3-3-3-3-3-| chord
E) 6-6-6-6-6-6-6-6-4-4-4-4-4-4-4-4-2-2-2-2-2-2-2-2-1-1-1-1-1-1-1-1-|
                                                   . . . . . . . . 

Final Chorus
e) ----------------------------------------------------------------|
B) ----------------------------------------------------------------|
G) ----------------------------------------------------------------|
D) 8---8-6---6-6---4---4-6---6-6---8---8-6---6-6---4---4-6---xxxxxx|
A) 8---8-6---6-6---4---4-6---6-6---8---8-6---6-6---4---4-6---xxxxxx|
E) 6---6-4---4-4---2---2-4---4-4---6---6-4---4-4---2---2-4---xxxxxx|

e) ----------------------------------------------------------------------|
B) ----------------------------------------------------------------------|
G) ----------------------------------------------------------------------| repeat whole
D) 8---8-6---6-6---4---4-6---6-6---8---8-6---6-6---4-----6--6-xxxxxxxxxx-| chorus 2x
A) 8---8-6---6-6---4---4-6---6-6---8---8-6---6-6---4-----6--6-xxxxxxxxxx-|
E) 6---6-4---4-4---2---2-4---4-4---6---6-4---4-4---2-----4--4-xxxxxxxxxx-|

End On:
e) ----------------|
B) ----------------|
G) ----------------|
D) 3---------------|
A) 3---------------|
E) 1---------------|

_____________________________________________________________________________


GUITAR 2 (LEAD GUITAR)

Intro
e) --------------------------------|
B) --9----7----6-----9----7----6---|
G) ----6----6----6-----6----6----6-|
D) 8-----8----8----8-----8----8----|
A) --------------------------------|
E) --------------------------------|

Intro II / Chorus 
e) ---------------------------------------------------------------|
B) --9----7----6-----9----7----6-----9----7----6-----9----7-------|
G) ----6----6----6-----6----6----6-----6----6----6-----6----6-----|
D) 8-----8----8----8-----8----8----8-----8----8----8-----8--------|
A) ---------------------------------------------------------------|
E) ---------------------------------------------------------------|

e) ----------------------------------------------------------------------------|
B) --9----7----6-----9----7----6-----9----7----6-------6-------6-------7-------|
G) ----6----6----6-----6----6----6-----6----6----6---6---6---6---6---6---6-----|
D) 8-----8----8----8-----8----8----8-----8----8----8-------8-------8-------8---|
A) ----------------------------------------------------------------------------|
E) ----------------------------------------------------------------------------|

Verse (13 bars of rest, then):
e) ----------------|
B) --9----7----6---|
G) ----6----6----6-|
D) 8-----8----8----|
A) ----------------|
E) ----------------|

Repeat Chorus

Repeat Verse (with 9 bars of rest at the beginning instead of 13)

Repeat Chorus

Bridge (8 bars of rest, then):
e) --------------------------------------------------------|
B) ----6---------9-----7----6------6---------7-----6----9--|
G) --6---6----6----6------6------6---6----6----6------6----| 
D) 8--------8--------8---------8--------8--------8---------| 2x
A) --------------------------------------------------------|
E) --------------------------------------------------------|

e) ---------------------------------------|
B) ---------------------------------------|
G) ---------------------------------------|
D) 8--------6--------4--------4---xxxxxxxx|
A) 8--------6--------4--------4---xxxxxxxx|
E) 6--------4--------2--------2---xxxxxxxx|

"We Sleep Forever" Part
e) -----------------------------------------------------------------|
B) -----------------------------------------------------------------|
G) --------------------------------8-8-8-8-8-8-8-8-1111111113131313-|
D) 8-8-8-8-8-8-8-8-11111111111111118-8-8-8-8-8-8-8-1111111113131313-| 2x
A) 8-8-8-8-8-8-8-8-11111111111111116-6-6-6-6-6-6-6-9-9-9-9-11111111-|
E) 6-6-6-6-6-6-6-6-9-9-9-9-9-9-9-9----------------------------------|

e) ----------------------------------------------------------------|
B) ----------------------------------------------------------------|
G) ----------------------------------------------------------------| 1 bar rest
D) 8-8-8-8-8-8-8-8-6-6-6-6-6-6-6-6-4-4-4-4-4-4-4-4-3-3-3-3-3-3-3-3-| after final
A) 8-8-8-8-8-8-8-8-6-6-6-6-6-6-6-6-4-4-4-4-4-4-4-4-3-3-3-3-3-3-3-3-| chord
E) 6-6-6-6-6-6-6-6-4-4-4-4-4-4-4-4-2-2-2-2-2-2-2-2-1-1-1-1-1-1-1-1-|
                                                   . . . . . . . . 

Final Chorus
e) ---------------------------------------------------------------|
B) --9----7----6-----9----7----6-----9----7----6-----9----7-------|
G) ----6----6----6-----6----6----6-----6----6----6-----6----6-----|
D) 8-----8----8----8-----8----8----8-----8----8----8-----8--------|
A) ---------------------------------------------------------------|
E) ---------------------------------------------------------------|

e) ----------------------------------------------------------------------------|
B) --9----7----6-----9----7----6-----9----7----6-------6-------6-------7-------|
G) ----6----6----6-----6----6----6-----6----6----6---6---6---6---6---6---6-----| Repeat whole
D) 8-----8----8----8-----8----8----8-----8----8----8-------8-------8-------8---| chorus 2x
A) ----------------------------------------------------------------------------|
E) ----------------------------------------------------------------------------|

End On:
e) ----------------|
B) ----------------|
G) ----------------|
D) 3---------------|
A) 3---------------|
E) 1---------------|



************************************

| h   hammer-on
| .   mute note

************************************


Please rate and comment!

            
            
Suggest correction
Creating personal tab
Creating personal tab
You can edit any tab online and save it as your Personal.

You can edit, replace or remove any tab part or add personal notes – all changes will be seen only by you.

Personal tabs can be accessed anytime from any device, even offline.
Learn more »
Give kudos to tab author, rate the tab!
1 2 3 4 5
comments
print report bad tab
guest
You may want to rate the tab now too:
select rating
Wanna post a correction for this tab? Suggest correction