Oops, an error
Loading. Please wait.

Brave Shine chords

version 2
version 2

Whole song

Interactive

by Aimer
5,880 views 45 this week
2 commentsread comments
1 2 3 4 5
x 7
add to favorites
×
Save as Personal and add changes to this tab that will be seen only by you. Learn more ›
×
You can save this tab as Personal to edit and correct it or add notes. All changes will be seen only by you. Learn more »
launch autoscroll
font size
0
reset
transpose
0
reset
simplify chords
display chords
guitar tuner
edit
Autoscroll
slow
fast
+/-
esc
set tempo
stop
Strumming
There is no strumming pattern for this song yet. and get +5 IQ
Brave Shine - Aimer
Tabbed by: Joseph Sullivan
E-mail: Sullinator@hotmail.co.uk

Tuning: Standard (Capo 1)                                  |      (These numbers are without capo taken into 
                                                           |      consideration due to their distance from it)
e|---------------------------------------------------------|----------------------11-15-11------------11-|
B|---------------------------------------------------------|---------------13-11-----------11-9-8-8-9----|
G|------4-4-4-----0-0-0-2-2---------4-4-4-----0-0-0-2-2----|-13-12---------------------------------------|
D|-2-2-2-----4-4-4---------4-4-0-0-0-----4-4-4---------4-4-|--------13-15--------------------------------|
A|---------------------------------------------------------|---------------------------------------------|
E|---------------------------------------------------------|---------------------------------------------|

 Em             Csus2      Asus2   Dsus2
hidari te ni kakushita negai wa negai no mama de
Em       Csus2 Dsus2
samenai yume miteta
 Em             Csus2     Asus2   Dsus2
migi te niwa kara no kioku daremo shiranai sekai no hate
Em      Csus2  Dsus2
yamanai ame ni utareteita

Csus2      Dsus2                 
   mamoritai mono o mamoreru tsuyosa
Em                G
   sore o shinjirarenakunaru yowasa
    Csus2            Dsus2   
subete o ukeirete ashita o sagasu

       Em Csus2    Asus2   Dsus2
Brave shine te wo nobaseba mada
        Em Csus2    Asus2   Dsus2
Stay the night kizu darake no yoru
            Em Csus2    Asus2   Dsus2         F
You save my life kazashita yaiba no saki ni omoi o kasaneta
Csus2            Em Csus2    Asus2   Dsus2
inori wa toki o koete
     Em Csus2    Asus2   Dsus2
Your brave shine…

Em Csus2    Asus2   Dsus2
hikaru koto wasureta aoi hoshi ga nokoshiteku
Em Csus2     Dsus2
kienai kage miteta
Em Csus2    Asus2   Dsus2
surechigau aka no kidou nanimo shiranai kodomo no mama
Em Csus2    Dsus2
akenai yoru o samayotteta
Csus2      Dsus2  
nakusenai mono o nakushita yowasa
Em                G
nanimo shinjirarenakunaru morosa
   Csus2            Dsus2   
tatenakunattemo sadame wa susumu

   Em Csus2    Asus2   Dsus2  Em Csus2     Dsus2
Break down kuzureochiteyuku seiza ga kizutsukeau yoru
Em Csus2    Asus2   Dsus2
You’re breaking dawn kawashita kotoba no naka ni
   F                Csus2
hitori o sasaeta tashika na yume o soete…
                  
e|-------------------------------------------------------x2|-------------------11-15-11------------11----|
B|---------------------------------------------------------|-------------13-11----------11-9-8-8-9-------|
G|------4-4-4-----0-0-0-2-2---------4-4-4-----0-0-0-2-2----|-13-12---------------------------------------|
D|-2-2-2-----4-4-4---------4-4-0-0-0-----4-4-4---------4-4-|-------13-15---------------------------------|
A|---------------------------------------------------------|---------------------------------------------|
E|---------------------------------------------------------|---------------------------------------------|

 Csus2     Dsus2
mamoritai mono o mamoreru no nara
 Csus2            Dsus2
subete o ukeirete ashita o sagasu
  B
yowake o tomosu

       Em Csus2    Asus2   Dsus2
Brave shine te o nobaseba mada
        Em Csus2    Asus2   Dsus2
Stay the night kizu darake no yoru
            Em Csus2    Asus2   Dsus2         F
You save my life kasaneta namida no hate ni hikari o mitsuketa
Csus2            Em Csus2    Asus2   Dsus2
inori wa toki o koete
     Em Csus2    Asus2   Dsus2
My brave shine…

e|---3-2-0---------------3-2-0------------|
B|--------3-------------------3-----------|
G|----------2-0-----------------2-0---0---|
D|--------------4-5-0-----------0---4-----|
A|----------0-----------------------------|
E|-0-------------------0------------------|

I know it's not perfect, but there were some bits I just couldn't figure out.

            
            
Suggest correction
Creating personal tab
Creating personal tab
You can edit any tab online and save it as your Personal.

You can edit, replace or remove any tab part or add personal notes – all changes will be seen only by you.

Personal tabs can be accessed anytime from any device, even offline.
Learn more »
comments
print report bad tab
2 comments total.
0 reply
chris960 10 Nov 06, 2016 02:03 PM

I just don't like it - no special reason

guest
You may want to rate the tab now too:
select rating
Wanna post a correction for this tab? Suggest correction