Oops, an error
Loading. Please wait.

Ninelie - Kabaneri Of The Iron Fortress Ed Tv Size Tab

619 views 18 this week
no commentswrite comment
1 2 3 4 5
2 more votes to show rating
add to favorites
launch autoscroll
font size
0
reset
how to read this tab
guitar tuner
Autoscroll
slow
fast
+/-
esc
set tempo
stop
Help us to improve Ultimate-Guitar.com Take our survey!
×
Author
Difficulty
Capo
novice
2nd fret
Capo on 2


[Verse]

E|----------|----------|------2---|----------|----------|------|
B|--3-------|----0-1-0-|--------0-|--3-------|----0-----|------|
G|----0-0-0-|--2-------|--2-0-----|----0-0-0-|--2---2-0-|----0-|
D|----------|----------|----------|----------|----------|--4---|
A|----------|----------|----------|----------|----------|------|
E|----------|----------|----------|----------|----------|------|


E|----------|----------|------2-3-|----------|----------|----------|
B|--3-------|----0-1-0-|----------|--3-1-0---|--------0-|--1-0-----|
G|----0-0-0-|--2-------|--2-0-----|--------2-|--0-0-2---|------2-0-|
D|----------|----------|----------|----------|----------|----------|
A|----------|----------|----------|----------|----------|----------|
E|----------|----------|----------|----------|----------|----------|


[Pre-Chorus]

E|----------|----------|----------|----------|----------|----------|--------|
B|----3-0-0-|----0-----|----------|----------|----3-0-0-|----0-3-3-|--0-3---|
G|--0-------|--2---2-2-|--0-2-0-0-|--2---0-0-|--0-------|--2-------|------2-|
D|----------|----------|----------|----2-----|----------|----------|--------|
A|----------|----------|----------|----------|----------|----------|--------|
E|----------|----------|----------|----------|----------|----------|--------|


[Chorus]

E|--3-2-3-5-|--0-3-2-3-|--5-5-3-0-|--5-3-0-7-|--5-0-7-5-|------5-3-|--2-3-5-7--|
B|----------|----------|----------|----------|----------|--3-3-----|-----------|
G|----------|----------|----------|----------|----------|----------|-----------|
D|----------|----------|----------|----------|----------|----------|-----------|
A|----------|----------|----------|----------|----------|----------|-----------|
E|----------|----------|----------|----------|----------|----------|-----------|


E|--3-2-----|--3-2-3-5-|--5-7-5-3-|--3-2-----|--7-----5-|--2-3-|
B|------3-5-|----------|----------|------3-5-|----5-5---|------|
G|----------|----------|----------|----------|----------|------|
D|----------|----------|----------|----------|----------|------|
A|----------|----------|----------|----------|----------|------|
E|----------|----------|----------|----------|----------|------|


[Outro]

E|----------|--3-2-----|----------|------|
B|--5-5-5-5-|------3-5-|--5-5-5-3-|--5-8-|
G|----------|----------|----------|------|
D|----------|----------|----------|------|
A|----------|----------|----------|------|
E|----------|----------|----------|------|
Suggest correction
Give kudos to tab author, rate the tab!
1 2 3 4 5
comments
print report bad tab
guest
You may want to rate the tab now too:
select rating
Wanna post a correction for this tab? Suggest correction