Oops, an error
Loading. Please wait.

Ninelie Chords

1,396 views 45 this week
no commentswrite comment
1 2 3 4 5
3 more votes to show rating
add to favorites
launch autoscroll
font size
0
reset
transpose
0
reset
simplify chords
display chords
guitar tuner
Autoscroll
slow
fast
+/-
esc
set tempo
stop
Help us to improve Ultimate-Guitar.com Take our survey!
×
Author
Difficulty
intermediate
About this tab version
My first tab. This was only made by ear. Was this info helpful? Yes No
Kimi wo    
e|-----------0---------0----------0----------0-------|
B|--------2---------2----------2----------2----------|
G|-----4---------4----------4----------4-------------|
D|--4---------4----------4----------4----------------|
A|---------------------------------------------------|
E|---------------------------------------------------|

Tsunagu sora no hoshi ga  
e|-----------0----------0----------0----------0------|
B|--------2----------2----------2----------2---------|
G|-----2----------2----------2----------2------------|
D|--2----------2----------2----------2---------------|
A|---------------------------------------------------|
E|---------------------------------------------------|

Hitotsu oto wo tatete mo    
e|-----------0----------0----------0----------0-----------0----------0----------0---------0-----|
B|--------2----------2----------2----------2-----------2----------2----------2----------2-------|
G|-----2----------2----------2----------2-----------2----------2----------2----------2----------|
D|--0----------0----------0----------0-----------0----------0----------0----------2-------------|
A|----------------------------------------------------------------------------------------------|
E|----------------------------------------------------------------------------------------------|

Dore mo onaji  
e|-----------0---------0----------0----------0-------|
B|--------2---------2----------2----------2----------|
G|-----4---------4----------4----------4-------------|
D|--4---------4----------4----------4----------------|
A|---------------------------------------------------|
E|---------------------------------------------------|

ame ni nureta 
e|-----------0----------0----------0----------0------|
B|--------2----------2----------2----------2---------|
G|-----2----------2----------2----------2------------|
D|--2----------2----------2----------2---------------|
A|---------------------------------------------------|
E|---------------------------------------------------|

yume bakari kawaku dake no kou
e|-----------0----------0----------0----------0-----------0----------0----------0---------0-----|
B|--------2----------2----------2----------2-----------2----------2----------2----------2-------|
G|-----2----------2----------2----------2-----------2----------2----------2----------2----------|
D|--0----------0----------0----------0-----------0----------0----------0----------0-------------|
A|----------------------------------------------------------------------------------------------|
E|----------------------------------------------------------------------------------------------|


Bsus7               Gbsus4               B7sus4(omit 5)       A(omit 5)           G#m (4th fret)
e|----------|       e|----------|        e|----------|        e|----------|       e|-x--|----|----|
B|--2-------|       B|--2-------|        B|----------|        B|--2-------|       B|-x--|----|----|
G|--2-------|       G|--4-------|        G|--2-------|        G|--2-------|       G|-x--|----|----|
D|----------|       D|--4-------|        D|--2-------|        D|----------|       D|-x--|----|-x--|
A|--2-------|       A|----------|        A|--2-------|        A|----------|       A|-x--|----|-x--|
E|----------|       E|----------|        E|----------|        E|----------|       E|-x--|----|----|
  


[Pre Chorus]
(Single strum)                   

Bsus7   Gbsus4
Aite wo nazoru 

  B7sus4    A(omit 5)
Kotae ni tsukareta 
    
    Bsus7             Gbsus4     Bsus7    G#m
Kurikaesu hi no nai yowake ni Kuzureta asa


[Chorus]

         D
Kudaketa cry & dream

E      F#m     A
Tobira dake no risou

        D          E
Machi ga zatsuon ni 
        
        F#m   A
Oborehashaide mo

        D 
Boku wa utai

E       F#m    A
Kaji wo suteyou

        D
Dakara SAIRENSU
 
       B7sus4            
Hibiku tame 

A(omit 5)
to


F#m
Don't be afraid

E
Daybreak has come
 
A(omit 5) 
Don't be afraid

B7sus4
Daybreak has come
    

        
Suggest correction
Give kudos to tab author, rate the tab!
1 2 3 4 5
comments
print report bad tab
guest
You may want to rate the tab now too:
select rating
Wanna post a correction for this tab? Suggest correction