Oops, an error
Loading. Please wait.

African Velvet Tab

by Air
2,444 views 6 this week
3 commentsread comments
1 2 3 4 5
1 last vote to show rating
add to favorites
launch autoscroll
font size
0
reset
how to read this tab
guitar tuner
Autoscroll
slow
fast
+/-
esc
set tempo
stop
Help us to improve Ultimate-Guitar.com Take our survey!
×
Difficulty
Capo
novice
2nd fret
capo 2nd fret

e|-----3p0------------------------------------------------------------------|
B|----------3p1-------1----------------3p0----------------------------------|
G|---------------2p0-----2p0----------------2p0-------0-------0---2---------|
D|----------------------------0--2---------------2p0-----2p0----------------|
A|-0--------------------------------------------------------------0---------|
E|-------------------------------0------------------------------------------|

contact: airia@azet.sk
Suggest correction
Give kudos to tab author, rate the tab!
1 2 3 4 5
comments
print report bad tab
3 comments total.
0 reply
punk.freaq 10 Dec 26, 2010 04:13 PM

awesome! thx.

0 reply
punk.freaq 10 Dec 26, 2010 05:48 PM

after that part it's:


e|----------------------------------------|
B|---5h7-5----3h5-3-------3~--------------|
G|------------------------2~--------------|
D|------------------------2~--------------|
A|----------------------------------------|
E|----------------------------------------|


I guess (:

0 reply
punk.freaq 10 Dec 26, 2010 05:50 PM

sry, wasn't supposed to be a correction :/

so after that part it's:


e|----------------------------------------|
B|---5h7-5----3h5-3-------3~--------------|
G|------------------------2~--------------|
D|------------------------2~--------------|
A|----------------------------------------|
E|----------------------------------------|

guest
You may want to rate the tab now too:
select rating
Wanna post a correction for this tab? Suggest correction