Oops, an error
Loading. Please wait.

All I Need Bass Tab

version 1
version 1

Whole song

by Air
3,779 views 3 this week
1 commentread comment
1 2 3 4 5
please rate
add to favorites
launch autoscroll
font size
0
reset
guitar tuner
Tab Pro tools
  • play this tab
  • loop segment
  • change instrument
  • show fretboard
  • metronome
×
Best way to learn
"All I Need"
Autoscroll
slow
fast
+/-
esc
set tempo
stop
Difficulty
intermediate
Im covering this and got fed up with all the half assed tabs.
Its not actually that hard.

Verse                      v - bridge will come in here

E--------------3~-------------3~------------------------¦
A--3~--------------1~--33~-3----------------------------¦
D-----55------------------------------------------------¦
G-------35~-5-------------------------------------------¦

Brige

E-------------------------------------------------------¦
A-------------------------------------------------------¦
D---1~---3~---------------------------------------------¦
G-------------------------------------------------------¦

Chorus

E--3~---------------------5-¦-3~------------------------¦
A------55---------3~---1----¦-----55---------3-1-3------¦ (then play the
D----------35~-5------------¦---------35~-5----------1~-¦ first part of the
G---------------------------¦---------------------------¦   chorus again)

This is correct, although listen out for when the bridge comes in its hard to explain i 
to show above.
comments
We did not receive enough feedback on this tab! Please rate:
print report bad tab
1 2 3 4 5
1 comment total.
0 reply
artantme wrote on March 21 2016, 04:17 pm

this tab is upside down and the chorus is completely wrong and i really want this tab oh come on really 15 words

I want to post or [tab]
guest
You may want to rate the tab now too:
select rating
Please do not post tabs as comments. Select "correction" instead!