Oops, an error
Loading. Please wait.

All I Need Bass Tab

version 2
version 2

Whole song

by Air
4,823 views 15 this week
no commentswrite comment
1 2 3 4 5
excellent!
x 3
add to favorites
launch autoscroll
font size
0
reset
guitar tuner
Tab Pro tools
  • play this tab
  • loop segment
  • change instrument
  • show fretboard
  • metronome
Autoscroll
slow
fast
+/-
esc
set tempo
stop
Difficulty
intermediate
G|---------------------------------------------------------------|
D|-----------------8--10~~~--------------------------------------|
A|---------10--10------------8--10~~~----------------------------|
E|---8~~~------------------------------6~~~--8~~~--3~~~----------|


G|----------------------------------------------------------------|
D|-----------------8--10~~~---------------------------------------|
A|---------10--10------------8--10~~~-----------------------------|
E|---8~~~------------------------------6~~~--8-8~~--3~~~----------|

1:02
G|-----------------------------------------------------------------------|
D|------------------------8-10-------------------------------------------|
A|-----------------10---8------------------------------------------------|
E|--11-----13-------------------------------------11-13-break-6---8-8-3--|


G|-------------------------------|
D|--------8-10-8-----------------|
A|--10--8---------10-8-7(?)------|
E|-------------------------------|


G|------------------------------|
D|--------8-10-8------------8---|
A|--10--8---------10-8-10-------|
E|------------------------------|


G|-------------------------------|
D|--------8-10-8-----------------|
A|--10--8--------10-8-7-6-8-(?)--|
E|-------------------------------|

I took by Ben Fico and wrote the last bits of it. I'm not sure bout all parts. but now 
least all parts of the song are covered.
MdR
comments
We did not receive enough feedback on this tab! Please rate:
print report bad tab
1 2 3 4 5
I want to post or [tab]
guest
You may want to rate the tab now too:
select rating
Please do not post tabs as comments. Select "correction" instead!