Oops, an error
Loading. Please wait.

Alone In Kyoto Tab

version 1
version 1

Whole song

Interactive

by Air
17,416 views 18 this week
3 commentsread comments
1 2 3 4 5
x 9
add to favorites
launch autoscroll
font size
0
reset
how to read this tab
guitar tuner
Autoscroll
slow
fast
+/-
esc
set tempo
stop
Help us to improve Ultimate-Guitar.com Take our survey!
×
Author
##################################################################################
# This file is the author's own work and represents their interpretation of the  #
# song. You may only use this file for private study, scholarship, or research.  #
##################################################################################

"Alone in Kyoto"                                                     
as recorded by AIR
from 2004 "Talkie Walkie"

Tuning Info
#####################
e as e
B as B
G as G
D as D
A as A
E as E
Set Frequency to 440 Hz
#####################

MAIN RIFF.

Guitar 1(Acoustic Nylon Strings)
Capo 5
Chords names respective to capoed guitar.

  Am               C                Am               C(add9)
e|----------------------------------------------------------3h0------|Repeat. 
B|------1p0--------------0h1--------------1h0------------------1h0---|
G|----2-----0---2------0-----0---2------2-----0---2------0---------2-|
D|--2---------2------2---------2------2---------2------2-------------|
A|0----------------3----------------0----------------3---------------|
E|-------------------------------------------------------------------|

BRIDGE
   
  D5
e|0------0------0--------0------------------------------|Repeat.
B|----3-----3-------3--------3--------------------------|
G|--2-----2-------2--------2----------------------------|
D|------------------------------------------------------|
A|------------------------------------------------------|
E|------------------------------------------------------|

All the genius of Air... 

SONG TABBED BY BRUNO GAMBA 2004. ANY QUESTION nobbru@libero.it
Suggest correction
comments
print report bad tab
3 comments total.
+1 reply
hansen 10 Oct 17, 2007 01:41 PM

i think the --0h1-- misses a pull at the end.
it should be -0h1p0

the rest sounds ok to me

thank you, great song

0 reply
Giant_Calzone 10 Jul 06, 2008 12:50 AM

Sounds perfect except you missed a pull. Correction here:

Am C Am C(add9)
e|------------------------------------------------------------3h0------|Repeat.
B|------1p0--------------0h1p0--------------1h0------------------1h0---|
G|----2-----0---2------0-------0---2------2-----0---2------0---------2-|
D|--2---------2------2-----------2------2---------2------2-------------|
A|0----------------3------------------0----------------3---------------|
E|---------------------------------------------------------------------|

0 reply
nobbru2884 416 Mar 31, 2009 12:54 PM

Yes ,that's right . Thx

guest
You may want to rate the tab now too:
select rating
Wanna post a correction for this tab? Suggest correction