Oops, an error
Loading. Please wait.

Another Day Tab

by Air
2,276 views 1 this week
no commentswrite comment
1 2 3 4 5
please rate
add to favorites
launch autoscroll
font size
0
reset
how to read this tab
guitar tuner
Autoscroll
slow
fast
+/-
esc
set tempo
stop
Help us to improve Ultimate-Guitar.com Take our survey!
×
Contributor
Difficulty
novice
- AIR -
- ANOTHER DAY -
- TALKIE WALKIE -

Firstly, here are the acoustic guitar chords avec lyrics and later on I shall include 
other synth ornamentation parts.
*=Sharp, due to New Mac. and not having found a Charachter Map or Mac. equivalent.

INTRO
    Dm                    D* M7                E7                 F6                     G
E-------------------------------------------------------------------|
A-------------------------------------------------------------------|
D-00-000-00-00-00-000-00-00-00-000-00-00-000-00-00-00-000-00-00-----|
G-22-222-22-22-33-333-33-33-44-444-44-55-555-55-55-77-777-77-77-----|
B-33-333-33-33-44-444-44-44-55-555-55-66-666-66-66-88-888-88-88-----|
E-11-111-11-11-33-333-33-33-44-444-44-55-555-55-55-77-777-77-77-----|

   G    G*      G    Dm  D*M7  D
E-33-444-3--------------------------|
A-55-666-5--------------------------|
D-55-666-5---00-000-0-00-000-00-00--|
G-44-555-4---22-333-2-22-222-22-22--|
B-33-444-3---33-444-3-33-333-33-33--|
E-33-444-3---11-333-2-22-222-22-22--|

VERSE 1

    Say,                  Goodbye,       Sunshine,          Tonight,

    D* M7                E7                 F6                     G
E-----------------------------------------------------|
A-----------------------------------------------------|
D-00-000-00-00-00-000-00-00-000-00-00-00-000-00-00----|
G-33-333-33-33-44-444-44-55-555-55-55-77-777-77-77----|
B-44-444-44-44-55-555-55-66-666-66-66-88-888-88-88----|
E-33-333-33-33-44-444-44-55-555-55-55-77-777-77-77----|

CHORUS 1

'Cos It's Just Another Day,              You Will Live Anyway,

                G    G*    G                                     Dm  D*M7  D
E--------33-444-3---------------------------------------------|
A--------55-666-5---------------------------------------------|
D--------55-666-5---------------------00-000-0-00-000-00-00---|
G--------44-555-4---------------------22-333-2-22-222-22-22---|
B--------33-444-3---------------------33-444-3-33-333-33-33---|
E--------33-444-3---------------------11-333-2-22-222-22-22---|

VERSE 2,

    Kiss,                  The Time,     That Goes,        Away,

    D* M7                E7                 F6                     G
E-----------------------------------------------------|
A-----------------------------------------------------|
D-00-000-00-00-00-000-00-00-000-00-00-00-000-00-00----|
G-33-333-33-33-44-444-44-55-555-55-55-77-777-77-77----|
B-44-444-44-44-55-555-55-66-666-66-66-88-888-88-88----|
E-33-333-33-33-44-444-44-55-555-55-55-77-777-77-77----|

CHORUS 2

'Cos It's Just Another Day,              You Will Lose It Anyway,

                G    G*    G                                     Dm  D*M7  D
E--------33-444-3---------------------------------------------|
A--------55-666-5---------------------------------------------|
D--------55-666-5---------------------00-000-0-00-000-00-00---|
G--------44-555-4---------------------22-333-2-22-222-22-22---|
B--------33-444-3---------------------33-444-3-33-333-33-33---|
E--------33-444-3---------------------11-333-2-22-222-22-22---|

INTERLUDE

     D* M7                E7                 F6                     G
E-----------------------------------------------------|
A-----------------------------------------------------|
D-00-000-00-00-00-000-00-00-000-00-00-00-000-00-00----|
G-33-333-33-33-44-444-44-55-555-55-55-77-777-77-77----|
B-44-444-44-44-55-555-55-66-666-66-66-88-888-88-88----|
E-33-333-33-33-44-444-44-55-555-55-55-77-777-77-77----|

   G    G*      G    Dm  D*M7  D
E-33-444-3--------------------------|
A-55-666-5--------------------------|
D-55-666-5---00-000-0-00-000-00-00--|
G-44-555-4---22-333-2-22-222-22-22--|
B-33-444-3---33-444-3-33-333-33-33--|
E-33-444-3---11-333-2-22-222-22-22--|

VERSE 3

    You,                  You Lust,     In Space,        In Time,

    D* M7                E7                 F6                     G
E------------------------------------------|
A------------------------------------------|
D-00-000-00-00-00-000-00-00-000-00-00-0----|
G-33-333-33-33-44-444-44-55-555-55-55-7----|
B-44-444-44-44-55-555-55-66-666-66-66-8----|
E-33-333-33-33-44-444-44-55-555-55-55-7----|

CHORUS 3

'Cos It's Just Another Day,              You Will Live It Anyway,

                G    G*    G                                     Dm  D*M7  D
E--------33-444-3---------------------------------------------|
A--------55-666-5---------------------------------------------|
D--------55-666-5---------------------00-000-0-00-000-00-00---|
G--------44-555-4---------------------22-333-2-22-222-22-22---|
B--------33-444-3---------------------33-444-3-33-333-33-33---|
E--------33-444-3---------------------11-333-2-22-222-22-22---|

'Cos It's Just Another Day,              You Will Live It Anyway,

                G    G*    G                                     Dm  D*M7  D
E--------33-444-3---------------------------------------------|
A--------55-666-5---------------------------------------------|
D--------55-666-5---------------------00-000-0-00-000-00-00---|
G--------44-555-4---------------------22-333-2-22-222-22-22---|
B--------33-444-3---------------------33-444-3-33-333-33-33---|
E--------33-444-3---------------------11-333-2-22-222-22-22---|


'Cos It's Just Another Day,              You Will Lose It Anyway,

                G    G*    G                                     Dm  D*M7  D
E--------33-444-3--------------------------------|
A--------55-666-5--------------------------------|
D--------55-666-5---------------------00-000-0---|
G--------44-555-4---------------------22-333-2---|
B--------33-444-3---------------------33-444-3---|
E--------33-444-3---------------------11-333-2---|


Also throughout the song there are synth lines 1 basically just follows the vocalist

   F D F D etc.
E-------|
A-------|
D-------|
G-------|
B--3--3-|
E-1--1--|

There is another played through a harpsichord like voice. This is made of arpeggios 
around the chords

  Dm                          (D*M7)                E7                  F6               
                   G        G8    G
E--------------------------------------------------------------------------------|
A--------------------------------------------------------------------------------|
D--------------------------------------------------------------------------------|
G-----------------------------------------------------------------------4--------|
B-3-----------3---3--3-----3----3----3-----3-----3----------1-0-1----3---3-1-0---|
E---1-0-1-3-1---1--1---3-1--3-1--4-1---4-1---5-1---5-1-1-5-------3-3-------------|


                             Dm             D*M7 D
E--------------------------------|
A--------------------------------|
D--------------------------------|
G-----4------4-------------------|
B---3---3--3----3----3---6---4---|
E-3-------3--------1---5---3---2-|

There is also a synty type string sound playing the same chords as the guitar and also a drone on.
Suggest correction What's this?
You can suggest a correction to this tab. Community and Mods will review your correction and vote to approve or reject it.
comments
We did not receive enough feedback on this tab! Please rate:
print report bad tab
1 2 3 4 5
I want to post or [tab]
guest
You may want to rate the tab now too:
select rating
Please do not post tabs as comments. Select "correction" instead!