Oops, an error
Loading. Please wait.

Electronic Performers Tab

version 1
version 1

Whole song

Interactive

816 views 1 this week
no commentswrite comment
1 2 3 4 5
3 more votes to show rating
add to favorites
launch autoscroll
font size
0
reset
how to read this tab
guitar tuner
×
Best way to learn
"Electronic Performers"
Autoscroll
slow
fast
+/-
esc
set tempo
stop
Author
Difficulty
  follow
novice
To my surprise, this awesome song doesn't exist, and considering it's fairly short, I
decided to tab it out. Just so you guys know, I'm not going to waste my time tabbing out
how many times each riff occurs and what measures they fall into, that'll be up to you, 
but no worries, the song is pretty easy. Also, there's a synth part in the last minute or
so of the song that is going to be omitted because it's not guitar and I'm in class.

b= bend

R= rest

Intro/Part 1
     D
e|------------------------------------|
B|--3-----3--3-----3--3-----3--3-----3|
G|--2--2--------2-----0--0--------0---|
D|--0---------------------------------|
A|------------------------------------|
E|------------------------------------|

e|------------------------------------|
B|--3-----3--3-----3--3-----3--2-----2|
G|--3--3--------3-----2--2-----2--2---|
D|--------------------0---------------|
A|------------------------------------|
E|------------------------------------|

e|------------------------------------|
B|--3-----3--3-----3--3-----3--3-----3|
G|--2--2--------2-----0--0--------0---|
D|--0---------------------------------|
A|------------------------------------|
E|------------------------------------|

e|-----------------------------4b-----|
B|--3-----3--3-----3--3-----3---------|
G|--3--3--------3-----2--2------------|
D|--------------------0---------------|
A|------------------------------------|
E|------------------------------------|


Part 2- this part isn't done with a guitar, but seeing as it's only a single note, no
reason not to include

The Xs don't really correspond with anything, but I like to scrape because it sounds
similar enough to the actual song

e|---X-X-X-4----------|
B|---X-X-X------------|
G|---X-X-X------------|
D|---X-X-X------------|
A|---X-X-X------------|
E|---X-X-X------------|


Part 3- Piano break down

e|---------------------------------R--|
B|---------------------------------R--|
G|---------------------------------R--|
D|--7--------9--10--9--7--5--7-----R--|
A|-----5--5---------------------5--R--|
E|---------------------------------R--|


Part 4- not really a separate part, the slides are just played over the intro/main riff

e|-----------|
B|-----------|
G|--7/--19---|
D|--X----X---|
A|--5/--17---|
E|-----------|

e|-----------|
B|-----------|
G|--7/-------|
D|--X---12/--|
A|--5/---X---|
E|------10/--|

e|--------------|
B|--------------|
G|------------19|
D|--12/--19/---X|
A|---X----X---17|
E|--10/--17/----|


Hope you guys enjoy it, being able to play this song brings me a lot of happiness
Suggest correction
Give kudos to tab author, rate the tab!
1 2 3 4 5
comments
print report bad tab
guest
You may want to rate the tab now too:
select rating
Wanna post a correction for this tab? Suggest correction