Oops, an error
Loading. Please wait.

Gordini Mix Brakes On Bass Tab

by Air
282 views 1 this week
no commentswrite comment
1 2 3 4 5
please rate
add to favorites
launch autoscroll
font size
0
reset
guitar tuner
Autoscroll
slow
fast
+/-
esc
set tempo
stop
Help us to improve Ultimate-Guitar.com Take our survey!
×
Author
Song: Gordini Mix (‘Brakes On’)
Artist: Air
Album: Premiers Symptomes
Composers: Nicolas Godin and Jean-Benoît Dunckel
Tabbed by: Kris Pender


Riff 1 (comes in gradually)

G|--------------------------------|
D|--------------------------------|
A|--5--5----5--5----5--5----5--5--|
E|--------------------------------|

Main Riff

G|----------------------7-7-7-7--7-5-4--------|
D|------------4--5-7--x----------------7-5-4--|
A|-5-5-5-5--x---------------------------------|
E|--------------------------------------------|
Suggest correction
Give kudos to tab author, rate the tab!
1 2 3 4 5
comments
print report bad tab
guest
You may want to rate the tab now too:
select rating
Please do not post tabs as comments. Select "correction" instead!