Oops, an error
Loading. Please wait.

Highschool Lover Tab

version 2
version 2

Whole song

Interactive

by Air
5,837 views 6 this week
no commentswrite comment
1 2 3 4 5
accurate
x 3
add to favorites
launch autoscroll
font size
0
reset
how to read this tab
guitar tuner
Tab Pro tools
  • play this tab
  • loop segment
  • change instrument
  • show fretboard
  • metronome
×
Best way to learn
"Highschool Lover"
Autoscroll
slow
fast
+/-
esc
set tempo
stop
Contributor
Capo
2nd fret
Highschool Lover by Air

Song: Highschool Lover
Band: Air
Album: The Virgin Suicides Soundtrack
Written by: Air

There are no lyrics so its basicly just chords over a piano playing the riff shown at 
bottom, but here are the chords first...

Capo 2nd Fret

the intro/interlude is as follows

Em7 / Em7 / Em7 / Em7  /  Em6 / Em6 / Em6 / Em6

e---------------------------------------------|
B-3---3---3---3----2---2---2---2--------------|
G-0---0---0---0----0---0---0---0--------------| Reapeat x4
D-2-2-2-2-2-2-2-2--2-2-2-2-2-2-2-2------------|
A-2-2-2-2-2-2-2-2--2-2-2-2-2-2-2-2------------|
E---------------------------------------------|

Verse 1:

G / B7 / Em / Em/D / Cd / B7 / C / A / A / C / A / C / A / C / (A) / B / Em

    G        B7      Em       Em/D      Cd       B7      C           A
e-3---3----1---1-------------0---0----2---2----1---1----0---0----0---0---0-|
B-0---0----0---0-------------0-0-0-0--1---1----0---0----1---1----2---2---2-|
G-0---0----2---2----0---0----0-0-0-0--2-2-2-2--2-2-2-2--0-0-0-0--2-2-2-2-2-|
D-0-0-0-0--1-1-1-1--2---2----0-0-0-0--1-1-1-1--1-1-1-1--2-2-2-2--2-2-2-2-2-|
A-2-2-2-2--2-2-2-2--2-2-2-2-----------0-0-0-0--2-2-2-2--3-3-3-3--0-0-0-0-0-|
E-3-3-3-3--0-0-0-0--0-0-0-0--------------------0-0-0-0--0-0-0-0------------|

           C        A        C        A        C      (A)  B  Em
e---0----0---0----0---0----0---0----0---0----0---0--------------------|
B---2----1---1----2---2----1---1----2---2----1---1----(2)--4----------|
G-2-2-2--0-0-0-0--2-2-2-2--0-0-0-0--2-2-2-2--0-0-0-0--(2)--4--0-------|
D-2-2-2--2-2-2-2--2-2-2-2--2-2-2-2--2-2-2-2--2-2-2-2--(2)--4--2-------|
A-0-0-0--3-3-3-3--0-0-0-0--3-3-3-3--0-0-0-0--3-3-3-3--(0)--2--2-------|
E--------0-0-0-0-----------0-0-0-0-----------0-0-0-0-------2--0-------|

Interlude:
Same as the intro


Verse 2:
Same as verse 1 but twice

This is the piano riff thats played during the verses:
                  v                    v
e-------------------------------------------------------|
B--12-10-12-14-10------12-10-12-14----------------------|
G-----------------11---------------13-11----------------|
D-------------------------------------------------------|
A-------------------------------------------------------|
E-------------------------------------------------------|
                                          v   v
e--------------------------------------------------------|
B--12-10-12--14---12-10-12--14---12-10-12-14-------------|
G---------------------------------------------11---------|
D--------------------------------------------------------|
A--------------------------------------------------------|
E--------------------------------------------------------|

v =vibro

Enjoy it, its a really good song, espacially when your........not sober..

p.s. Whatch out for the timing.
comments
We did not receive enough feedback on this tab! Please rate:
print report bad tab
1 2 3 4 5
I want to post or [tab]
guest
You may want to rate the tab now too:
select rating
Please do not post tabs as comments. Select "correction" instead!