Oops, an error
Loading. Please wait.

La Femme Dargent Bass Tab

version 1
version 1

Whole song

by Air
27,702 views 126 this week
4 commentsread comments
1 2 3 4 5
x 21
add to favorites
launch autoscroll
font size
0
reset
guitar tuner
Autoscroll
slow
fast
+/-
esc
set tempo
stop
Help us to improve Ultimate-Guitar.com Take our survey!
×
Author
g|------|------------------------------------------------------|
d|------|-----7-9---9p7---7--9---------------------------------|
a|------|-7h9-----------9-------9--9p7--5h7--------------------|
E|---/7-|-----------------------------------5-5---5-5---5/7--7-|

g|----------|
d|----------|
a|----------|
E|-2--5--7--|

g|---------------------|----|
d|---------------------|----|
a|---------------------|----|
E|--7--7---2--5--7-----|-7/-|

g|-------------------------|--------------------------------------|
d|-------------------------|-------12--14---14b--14---14b--p12----|
a|-----5-7b-----7b--p5-----|---14------------------------------14-|
E|--7-------------------7--|--------------------------------------|

g|---------------14---16--16p14----14--16------------------------------------|
d|---------14h16----------------16---------16--16p14--12h14------------------|
a|-14--14----------------------------------------------------12-12--12-12--12|
E|---------------------------------------------------------------------------|


************************************

| p  Pull-off
| h  Hammer-on
| /  Slide up
| b  Bend

************************************
Suggest correction
comments
print report bad tab
4 comments total. Showing first comments.
+1 reply
JarJarJared 10 Apr 18, 2008 10:37 AM

Great tab, but there are a few points where there are hammers / pulls where there shouldn't be and the reverse of that as well. Otherwise, thanks for air!

0 reply
Ramstien 30 Dec 05, 2009 05:29 AM

Seems to be mostly correct but there are a few parts which don't seem to fit.

+1 reply
lateraluspiral 20 Feb 10, 2010 03:50 PM

G|-------------------------------------------------
D|----------9-9p7---7h9----------------------------
A|------7h9-------9-------9-9-9p7/5/7--------------
E|--7-7--------------------------------5-5-5-5-5---

thats how I play the main part, pretty similar

guest
You may want to rate the tab now too:
select rating
Wanna post a correction for this tab? Suggest correction